» » »

One Half Of Zero, Slipping Away Tabs (ver.1)

Artists:  A B C D E F G H I J K L M N O P Q R S T U V W X Y Z # 

Slipping Away Tabs (ver.1)

One Half Of Zero Tabs
 Rating:
4/5 (4 votes)
Slipping Away lessons Tabs too difficult? Try these video lessons and learn fast
                Chorus
E----------------------------------
B----------------------------------
G-4-4-4-4-6-6-6-6------------------
D-4-4-4-4-6-6-6-6-6-6-6-6-8-8-8-8--
A-2-2-2-2-4-4-4-4-4-4-4-4-8-8-8-8--
E-----------------4-4-4-4-6-6-6-6--

Verse
E-------------------------
B-------------------------
G-------------------------
D-5------6------4------5--
A-5------6------4------5--
E-3------4------2------3--

Fill
E--------------------------------------------------
B--------------------------------------------------
G-7-7-7-7-7-7--------------------------------------
D-7-7-7-7-7-7-7-7-7-7-7-7-9-9-9-9-9-9-5-5-5-5-5-5--
A-5-5-5-5-5-5-7-7-7-7-7-7-9-9-9-9-9-9-5-5-5-5-5-5--
E-------------5-5-5-5-5-5-7-7-7-7-7-7-3-3-3-3-3-3--

Order:
Chorus              2x
Verse              1x
Chorus (no words)  2x
Fill               2x
Verse              1x
Chorus             2x
Chorus (no words)  2x
Fill		   2x

Lyrics:

Chorus:  Now as I Close my eyes
	I let it all slip away
	F**k all your stupid lies
	I let it all slip away

Verse:   Trust is what you said we had
	But now you let it all rot away 
	Wasting my time my money and space
	I'm running away without a trace

Chorus:  Now as I Close my eyes
	I let it all slip away
	F**k all your stupid lies
	I let it all slip away

Verse:   Facing myself losing a smile
	To get over you theres never a way
	Theres always that image of us
	Burning deep into my mind
            
Submit corrections

comments powered by Disqus
↑ Back to top | One Half Of Zero Tabs for Slipping Away. Lyrics for acoustic guitar and electric guitar. Tablatures and chords are parodies/interpretations of the original songs. You may use it for private study, scholarship, research or language learning purposes only