>
 >
Dead Last

Dead Last Guitar Tabs

One Half Of Zero - Dead Last chords, tabs, tablatures, lyrics

Guitar lessons | Add/correct | Request | Top 50 tabs Artists:  A B C D E F G H I J K L M N O P Q R S T U V W X Y Z 0-9

Dead Last Guitar Tabs – One Half Of Zero

CD, Sheet music, Poster

Do you like Dead Last? Share with your friends now
Tabs
Intro
E------------------------------------------
B------------------------------------------
G------------------------------------------
D-8-8-8-8-8-8-8-8-8-8-5-5-5-5-5-7-7-7-7-7--
A-8-8-8-8-8-8-8-8-8-8-5-5-5-5-5-7-7-7-7-7--
E-6-6-6-6-6-5-5-5-5-5-3-3-3-3-3-5-5-5-5-5--

Verse (Palm Muted)
E----------------------------------------------------------
B----------------------------------------------------------
G-7-7-7-7-7-7-7---------------5-5-5-5-5-5-5----------------
D-7-7-7-7-7-7-7-7-7-7-7-7-7-7-5-5-5-5-5-5-5-5-5-5-5-5-5-5--
A-5-5-5-5-5-5-5-7-7-7-7-7-7-7-3-3-3-3-3-3-3-5-5-5-5-5-5-5--
E---------------5-5-5-5-5-5-5---------------3-3-3-3-3-3-3--

Chorus
E--------------------------------
B--------------------------------
G-5-5-5-5-5----------------------
D-5-5-5-5-5-5-5-5-5-5-3-3-3-3-3--
A-3-3-3-3-3-5-5-5-5-5-3-3-3-3-3--
E-----------3-3-3-3-3-1-1-1-1-1--

Interlude Part 1
E-----------------------------------------------
B-----------------------------------------------
G-----------------------------------------------
D-----------------------------------------------
A-6---6-6-5-3--6---6-6-5-3--6----6-6-5-3-3-3-3--
E-----------------------------------------------

Interlude Part 2
E----------------------------------------------------------
B----------------------------------------------------------
G-8-8-8-8-8-8-8-8-8-8-8-8-8-8-8-8-8-8-8-8-8-8-8-8-8-8-8-8--
D-8-8-8-8-8-8-8-8-8-8-8-8-8-8-8-8-8-8-8-8-8-8-8-8-8-8-8-8--
A-6-6-6-6-6-6-6-6-6-6-6-6-6-6-5-5-5-5-5-5-5-5-5-5-5-5-5-5--
E----------------------------------------------------------

Order:
Intro           4x
Verse           2x
Chorus          2x
Intro           2x
Verse           2x
Interlude pt.1  2x
Interlude pt.2  2x
Chorus          2x
Interlude pt.2  2x
Chorus          3x

Lyrics:

Verse:  It breaks my heart and makes me sad
	To think of all the good and bad times we had
	You made me laugh and made me cry
	But now the only thing left is for me to wonder why

Chorus: And now I'll think of how
	I'll get through tomorrow
	If I can make it through today
	And now I'll think of how
	I'll get through tomorrow
	If I can make it through today

Verse:  What's done is wrong but in the past
	Good things come and go so fast
	You looked up at me and said goodbye
	But now the only thing left is for me to wonder why

Chorus: And now I'll think of how
	I'll get through tomorrow
	If I can make it through today
	And now I'll think of how
	I'll get through tomorrow
	If I can make it through today





Comments


Popular One Half Of Zero tabs & chords
Slipping Away Tabs
Standing Still Tabs
The Phone Rings When It Wants To Talk Tabs
Today's Another Day Tabs


Song lyrics



↑ Back to top | Tablatures and chords are parodies/interpretations of the original songs. You may use it for private study, scholarship, research or language learning purposes only
© 2014 AZChords.com Contact us | Privacy policy | DMCA | Add/correct tabs | Request tabs | Top 50 tabs