>
 >
Monster

Monster Guitar Tabs

One-eyed Doll - Monster chords, tabs, tablatures, lyrics

Guitar lessons | Add/correct | Request | Top 50 tabs Artists:  A B C D E F G H I J K L M N O P Q R S T U V W X Y Z 0-9

Monster Guitar Tabs – One-eyed Doll

CD, Sheet music, Poster

Do you like Monster? Share with your friends now
Tabs
Artist - One-Eyed Doll
Album - Monster
Song - Monster



Drop D Tuning



Intro (Clean)

    Dm   Am      Dm   Am      Dm            Am      Dm   Am
e|--1----0-------1----0-------0-------------0-------1----0----|
B|--3----1-------3----1-------3-------------1-------3----1----|
G|--2----2-------2----2-2~----2-------------2-2~----2----2-2~-|
D|-------2-2~---------2--------------0------2-2~---------2----|
A|---------------------------------0---0----------------------|
D|-------------------------------0----------------------------|



Verse (Clean)

"For I'm afraid If I...."

    Dm   Am     Dm   Am     Dm   Am     Dm   Am     Dm
e|--1----0------1----0------1----0------1----0------1------|
B|--3----1-2~---3----1-2~---3----1-2~---3----1-2~---3------|
G|--2----2------2----2-2~---2----2-2~---2----2-2~---2------|
D|-------2-----------2-----------2-----------2-------------|
A|---------------------------------------------------------|
D|------------------------------------------------------0~-|



Riff (Distortion)

e|---------------------------------------------------|
B|--------------------------------------------------o|
G|---------------------------------------------------| x4
D|--4-3-0--1-0--4-3-0--1-0--4-3-0--1-0--4-3-0-xxxx---|
A|--4-3-0--1-0--4-3-0--1-0--4-3-0--1-0--4-3-0-xxxx--o|
D|--4-3-0--1-0--4-3-0--1-0--4-3-0--1-0--4-3-0-xxxx---|
                


Chorus (Distortion)

"I can see a monster's shadow..."

e|------------------------------------|
B|------------------------------------|
G|------------------------------------|
D|--5-5----6-6--2-2--0-0----5-5--2-2--|
A|--5-5----6-6--2-2--0-0----5-5--2-2--|
D|--5-5----6-6--2-2--0-0----5-5--2-2--|

e|------------------------------------|
B|------------------------------------|
G|------------------------------------|
D|--0-0----7-7--3-3--0-0----6-6--3-3--|
A|--0-0----7-7--3-3--0-0----6-6--3-3--|
D|--0-0----7-7--3-3--0-0----6-6--3-3--|



Riff (Distortion)

e|---------------------------------------------------|
B|--------------------------------------------------o|
G|---------------------------------------------------| x4
D|--4-3-0--1-0--4-3-0--1-0--4-3-0--1-0--4-3-0-xxxx---|
A|--4-3-0--1-0--4-3-0--1-0--4-3-0--1-0--4-3-0-xxxx--o|
D|--4-3-0--1-0--4-3-0--1-0--4-3-0--1-0--4-3-0-xxxx---|
 
    Dm           
e|--1------|
B|--3------|
G|--2------|
D|---------|
A|---------|
D|-----0~--|



Verse (Clean)

    Dm   Am     Dm   Am     Dm            Am     Dm   Am
e|--1----0------1----0------1-------------0------1----0----|
B|--3----1------3----1------3-------------1------3----1----|
G|--2----2-2~---2----2------2-------------2-2~---2----2-2~-|
D|-------2-----------2-2~----------0------2-2~--------2-2~-|
A|-------------------------------0---0---------------------|
D|-----------------------------0---------------------------|


"Thunder rumbles down the..."

    Dm   Am     Dm   Am     Dm   Am     Dm   Am     Dm
e|--1----0------1----0------1----0------1----0------1--------|
B|--3----1------3----1------3----1------3----1------3--------|
G|--2----2-2~---2----2-2~---2----2-2~---2----2-2~---2--------|
D|-------2-----------2-----------2-----------2-2~------------|
A|-----------------------------------------------------------|
D|-------------------------------------------------------0~--|



Riff (Distortion)

e|---------------------------------------------------|
B|--------------------------------------------------o|
G|---------------------------------------------------| x4
D|--4-3-0--1-0--4-3-0--1-0--4-3-0--1-0--4-3-0-xxxx---|
A|--4-3-0--1-0--4-3-0--1-0--4-3-0--1-0--4-3-0-xxxx--o|
D|--4-3-0--1-0--4-3-0--1-0--4-3-0--1-0--4-3-0-xxxx---|



Chorus (Distortion)

"I can see a monster's shadow..."

e|------------------------------------|
B|------------------------------------|
G|------------------------------------|
D|--5-5----6-6--2-2--0-0----5-5--2-2--|
A|--5-5----6-6--2-2--0-0----5-5--2-2--|
D|--5-5----6-6--2-2--0-0----5-5--2-2--|

e|------------------------------------|
B|------------------------------------|
G|------------------------------------|
D|--0-0----7-7--3-3--0-0----6-6--3-3--|
A|--0-0----7-7--3-3--0-0----6-6--3-3--|
D|--0-0----7-7--3-3--0-0----6-6--3-3--|



Riff (Distortion)

e|---------------------------------------------------|
B|--------------------------------------------------o|
G|---------------------------------------------------| x4
D|--4-3-0--1-0--4-3-0--1-0--4-3-0--1-0--4-3-0-xxxx---|
A|--4-3-0--1-0--4-3-0--1-0--4-3-0--1-0--4-3-0-xxxx--o|
D|--4-3-0--1-0--4-3-0--1-0--4-3-0--1-0--4-3-0-xxxx---|
              
(last time let 0 ring out, instead of xxxx)


(Clean)

    Dm 
e|--1~-----|
B|--3~-----|
G|--2~-----|
D|---------|
A|---------|
D|------0~-|


(Distorted)

e|---------------------------------------------------|
B|--------------------------------------------------o|
G|---------------------------------------------------| x8
D|--4-3-0--1-0--4-3-0--1-0--4-3-0--1-0--4-3-0-xxxx---|
A|--4-3-0--1-0--4-3-0--1-0--4-3-0--1-0--4-3-0-xxxx--o|
D|--4-3-0--1-0--4-3-0--1-0--4-3-0--1-0--4-3-0-xxxx---|



Outro (Distorted)

   Dm 
e|--1~--|
B|--3~--|
G|--2~--|
D|------|
A|------|
D|------|

Upstrum and repeat to finish.


*Proceed to jump into nearest drummer*



Lyrics :

In a dark and scary night
When everyone's asleep
I hold my breath with all my might
Careful not to make a peep

For I'm afraid if I should make
But one little tiny sound
A monster will take a wooden stake
And nail me to the ground

I can see a monster's shadow
Monster in my head
I can taste a monster's breath
A monster in my bed

Thunder rumbles down the hallway
Footsteps shake the floor
I pray the Lord my soul to take
As light streams through the door

I can see a monster's shadow
Monster in my head
I can taste a monster's breath
A monster in my bed





Comments


Popular One-eyed Doll tabs & chords
Break Bass Tabs
Break Chords
Be My Friend Tabs
Break Tabs
Brief Candle Tabs
Committed Tabs
Fight Tabs
I Love My Little Bus Tabs
Nudie Bar Tabs
Break Ukulele


Song lyrics



↑ Back to top | Tablatures and chords are parodies/interpretations of the original songs. You may use it for private study, scholarship, research or language learning purposes only
© 2014 AZChords.com Contact us | Privacy policy | DMCA | Add/correct tabs | Request tabs | Top 50 tabs