>
 >
Fight

Fight Guitar Tabs

One-eyed Doll - Fight chords, tabs, tablatures, lyrics

Guitar lessons | Add/correct | Request | Top 50 tabs Artists:  A B C D E F G H I J K L M N O P Q R S T U V W X Y Z 0-9

Fight Guitar Tabs – One-eyed Doll

CD, Sheet music, Poster

Do you like Fight? Share with your friends now
Tabs
Artist - One-Eyed Doll
Album - Monster
Song - Fight



Drop D Tuning

---------------
/ - slide up
\ - slide down
pm - palm mute
~ - hold
---------------

Order :

Verse x2
Chorus
Verse x2
Chorus
Interlude
Outro

---------------




Verse

         Dm
e|-------1---1---1-------1----|
B|-------3---3---3-------3----|
G|-------2---2---2-------2----|
D|-------0---0---0-------0----|
A|--0-0----0---0---0-0-0---0--|
D|--0-0----0---0---0-0-0---0--|


         Dm
e|-------1---1---1-------1----------------|
B|-------3---3---3-------3----------------|
G|-------2---2---2-------2----------------|
D|-------0---0---0-------0--0--7-5-0-6-5--|
A|--0-0----0---0---0-0-0----0--7-5-0-6-5--|
D|--0-0----0---0---0-0-0----0--7-5-0-6-5--|


         Dm
e|-------1---1---1-------1-------------|
B|-------3---3---3-------3-------------|
G|-------2---2---2-------2-------------|
D|-------0---0---0-------0-------------|
A|--0-0----0---0---0-0-0---0------1/9--|
D|--0-0----0---0---0-0-0---0--1/9\1/9--|


         Dm
e|-------1---1---1-------1----------------|
B|-------3---3---3-------3----------------|
G|-------2---2---2-------2----------------|
D|-------0---0---0-------0--0--7-5-0-6-5--|
A|--0-0----0---0---0-0-0----0--7-5-0-6-5--|
D|--0-0----0---0---0-0-0----0--7-5-0-6-5--|




Chorus


"You can have it..."
e|-------------------------------------|
B|------------------------------------o|
G|-------------------------------------| x3
D|--7-5-0-6-5-0-3-0---7-5-0-6-5-0-3~---|
A|--7-5-0-6-5-0-3-0---7-5-0-6-5-0-3~--o|
D|--7-5-0-6-5-0-3-0---7-5-0-6-5-0-3~---|

e|-------------------------------------|
B|-------------------------------------|
G|-------------------------------------|
D|--7-5-0-6-5-0-3-0---7-5-0-6-5-0-3/5--|
A|--7-5-0-6-5-0-3-0---7-5-0-6-5-0-3/5--|
D|--7-5-0-6-5-0-3-0---7-5-0-6-5-0-3/5--|




Interlude

          Dm                         Dm
e|--------1~---------------------1~--5--|
B|--------3~---------------------3~--7--|
G|--------2~---------------------2~--6--|
D|--0-0-0-0----0-0-2/3/4---0-0-0-0------|
A|--0-0-0------0-0-2/3/4---0-0-0--------|
D|--0-0-0------0-0-2/3/4---0-0-0--------|


(Clean)

e|----5---5---5---5---5---5---5---5---5---5---5---5-----|
B|------7---7---7---7---7-------7-------7---7---7------o|
G|--6-----------------------6-------6---------------6b--| x2
D|------------------------------------------------------| (bend very slightly)
A|-----------------------------------------------------o|
D|------------------------------------------------------|

(Distorted)

e|----5---5---5---5---5---5---5---5---5---5---5---5-----|
B|------7---7---7---7---7-------7-------7---7---7------o|
G|--6-----------------------6-------6---------------6b--| x2
D|------------------------------------------------------|
A|-----------------------------------------------------o|
D|------------------------------------------------------|

e|---------5---5---5---5---5---5---5---5---5---5---5---5-----|
B|-----------7---7---7---7---7-------7-------7---7---7-------|
G|-------6-----------------------6-------6---------------6b--| x2
D|-----------------------------------------------------------|
A|--0-0------------------------------------------------------|
D|--0-0------------------------------------------------------|

e|-------|
B|--0-0--|
G|--0-0--|
D|--0-0--|
A|-------|
D|-------|

    Dm
e|--1--|
B|--3--|
G|--2--| x28
D|--0--|
A|-----|
D|-----|

e|-------------------|
B|-------------------|
G|-------------------|
D|-------------------|
A|--0-0-0-0-0-0-0-0--|
D|--0-0-0-0-0-0-0-0--|
    pm

e|-----------------------------------|
B|----------------------------------o|
G|-----------------------------------| x4
D|--7-5-0-6-5-0-3-0-7-5-0-6-5-0-3/5--|
A|--7-5-0-6-5-0-3-0-7-5-0-6-5-0-3/5-o|
D|--7-5-0-6-5-0-3-0-7-5-0-6-5-0-3/5--|

    Dm
e|--1--|
B|--3--|
G|--2--| x28
D|--0--|
A|-----|
D|-----|

e|-------------------|
B|-------------------|
G|-------------------|
D|-------------------|
A|--0-0-0-0-0-0-0-0--|
D|--0-0-0-0-0-0-0-0--|
    pm

e|-----------------------------------|
B|----------------------------------o|
G|-----------------------------------| x8
D|--7-5-0-6-5-0-3-0-7-5-0-6-5-0-3/5--|
A|--7-5-0-6-5-0-3-0-7-5-0-6-5-0-3/5-o|
D|--7-5-0-6-5-0-3-0-7-5-0-6-5-0-3/5--|




Outro

         Dm
e|-------1---1---1-------1----|
B|-------3---3---3-------3----|
G|-------2---2---2-------2----|
D|-------0---0---0-------0----|
A|--0-0----0---0---0-0-0---0--|
D|--0-0----0---0---0-0-0---0--|




Lyrics :

Am I crazy
Am I deranged
Am I crazy
Or have things changed

You can have it
I won't fight
You can have it
I won't fight

Pull the trigger
I won't fight
Pull the trigger
I won't fight





Comments


Popular One-eyed Doll tabs & chords
Break Bass Tabs
Break Chords
Be My Friend Tabs
Break Tabs
Brief Candle Tabs
Committed Tabs
I Love My Little Bus Tabs
Monster Tabs
Nudie Bar Tabs
Break Ukulele


Song lyrics



↑ Back to top | Tablatures and chords are parodies/interpretations of the original songs. You may use it for private study, scholarship, research or language learning purposes only
© 2014 AZChords.com Contact us | Privacy policy | DMCA | Add/correct tabs | Request tabs | Top 50 tabs