» » »

Committed Tabs (ver.1)

Artists:  A B C D E F G H I J K L M N O P Q R S T U V W X Y Z # 

Committed Tabs (ver.1)

One-eyed Doll
Rating:
5/5 (1 vote)

Hard to play? Try these video lessons and learn fast.
                ----------------------------------------------------------------------------
----------------------------------------------------------------------------
Tuning: DADGBe

Intro: 
(x4)
e|-----------------------------------|
B|-----------------------------------|
G|-----------------------------------|
D|-----------------------------------|
A|-----------------------------------|
D|-0-0-3-0--0-0-5-0--0-0-3-0--5-4-3--|

Main Riff1: 
(x4)
e|----------------------------------|
B|----------------------------------|
G|----------------------------------|
D|-0-0-3-0--0-0-5-0--0-0-3-0--5-4-3-|
A|-0-0-3-0--0-0-5-0--0-0-3-0--5-4-3-|
D|-0-0-3-0--0-0-5-0--0-0-3-0--5-4-3-|

Main Riff2: 
(x4)
e|-------------------------------|
B|-------------------------------|
G|-------------------------------|
D|-0-0-3-0x-0-5-0x-0-3-0x--5-4-3-|
A|-0-0-3-0x-0-5-0x-0-3-0x--5-4-3-|
D|-0-0-3-0x-0-5-0x-0-3-0x--5-4-3-|

Verse: 
(x2)
e|----------------------------------------|
B|----------------------------------------|
G|----------------------------------------|
D|-00000000-22222222-33333333-5-3-2-----0-|
A|-00000000-22222222-33333333-5-3-2-----0-|
E|-00000000-22222222-33333333-5-3-2-----0-|

-Then Main Riff 1 x2 & Main Riff 2 x2

Chorus: 
x4)
e|--------------------|
B|--------------------|
G|--------------------|
D|-00000000-3333-5555-|
A|-00000000-3333-5555-|
E|-00000000-3333-5555-|

-Main Riff 1 x2 & Main Riff 2 x2

-Verse

-Main Riff 1 x2 & Main Riff 2 x2

-Chorus

-Main Riff 1 x2 & Main Riff 2 x2

Bridge: ("to be a sheep.. etc.")
e|------------------|
B|------------------|
G|------------------|
D|-0x-----0x-----0x-|
A|-0x-----0x-----0x-|
D|-0x-----0x-----0x-|

-Main Riff 1 x4 & Main Riff 2 x4

-Chorus

-Main Riff 1 x2 & Main Riff 2 x2

For the outro ad lib as much of Main Riff 1 as you want and end with a big:
e|---|
B|---|
G|---|
D|-3-|
A|-3-|
D|-3-|  !!!!!


Lyrics:
Just another mental patient 
How I wish this room was vacant 
Can't seem to break through these padded walls 

Kicking screaming drooling biting 
They say there's no use in fighting 
So many white coats can't elude them all 

One more mark against society 
Can't you see I'm not a threat 
I'm no simple proletarian 
You haven't bled my spirit yet 

Locked up in this nuthouse crying 
All these drugs my brain in frying 
Doctors say the lunatic needs more 

Lock me up they must sedate me 
Poke me prod me irritate me 
No choice but to be the needle's whore 

One more mark against society 
Can't you see I'm not a threat 
I'm no simple proletarian 
You haven't bled my spirit yet 

To be a sheep; a blissful guinea pig 
Ignorance is your god, too 
Society awaits with open arms 
We'll brainwash your demons out of you
----


And that's how you play this awesome song!

Lots of love to Kimberly and One-Eyed Doll. You guys rock!


and don't forget to check out their AWESOME new music vid.:



ROCK ON!


************************************

| /   slide up
| \   slide down
| h   hammer-on
| p   pull-off
| ~   vibrato
| +   harmonic
| x   Mute note
| b   Bend
| pb  Pre-bend
| br  Bend release
| pbr Pre-bend release
| brb Bend release bend

************************************
            
Hard to play? Try these video lessons and learn fast. | Correct




comments powered by Disqus
↑ Back to top | Tablatures and chords are parodies/interpretations of the original songs. You may use it for private study, scholarship, research or language learning purposes only