» » »

Unsung Hero Tabs (ver.3)

Artists:  A B C D E F G H I J K L M N O P Q R S T U V W X Y Z # 

Unsung Hero Tabs (ver.3)

One Dollar Short
Rating:
0/5 (0 votes)

Tabs too difficult? Try these video lessons and learn fast.
                Band: One Dollar Short


Intro (first part of the intro is played in clean) 
e|-------------------------------------------------|
B|-------------------------------------------------|
G|-9-9--9-9-9-9--9-9--9-9--9-9--9-9-9-9--9-9--9-9--|
D|-7-7--7-7-7-7--7-7--7-7--7-7--7-7-7-7--7-7--7-7--|
A|-9-9--9-9-9-9--9-9--9-9--5-5--5-5-5-5--5-5--5-5--|
E|-------------------------------------------------|

e|-------------------------------------------------|
B|-------------------------------------------------|
G|-6-6--6-6-6-6--6-6--6-6--------------------------|
D|-7-7--7-7-7-7--7-7--7-7--------------------------|
A|-7-7--7-7-7-7--7-7--7-7--7-7--7-7-7-7--7-7--7-7--|
E|-5-5--5-5-5-5--5-5--5-5--4-4--4-4-4-4--4-4--4-4--|

e|-------------------------------------------------|
B|-------------------------------------------------|
G|-9-9--9-9-9-9--9-9--9-9--9-9--9-9-9-9--9-9--9-9--|
D|-7-7--7-7-7-7--7-7--7-7--7-7--7-7-7-7--7-7--7-7--|
A|-9-9--9-9-9-9--9-9--9-9--5-5--5-5-5-5--5-5--5-5--|
E|-------------------------------------------------|
(on the second through cut off the 2 extra 7/4's)
e|--------------------------------------------|
B|--------------------------------------------|
G|-6-6--6-6-6-6--6-6--6-6---------------------|
D|-7-7--7-7-7-7--7-7--7-7---------------------|
A|-7-7--7-7-7-7--7-7--7-7--7-7--7-7-7-7--7-7--|
E|-5-5--5-5-5-5--5-5--5-5--4-4--4-4-4-4--4-4--|

 (and this part of the intro is played in distortion)
e|--------------------------------------------------0----|
B|----------------------------------------------------0--|
G|--------------------------7-7--7-7-7-7--7-7--7--7------|
D|-4-4--4-4-4-4--4-4--4--4--7-7--7-7-7-7--7-7--7--7------|
A|-4-4--4-4-4-4--4-4--4--4--5-5--5-5-5-5--5-5--5--5------|
E|-2-2--2-2-2-2--2-2--2--2-------------------------------|

e|---------------------------------------------------|
B|---------------------------------------------------|
G|---------------------------------------------------|
D|-7-7--7-7-7-7--7-7--7--7--2-2--2-2-2-2--2-2--2--2--|
A|-7-7--7-7-7-7--7-7--7--7--2-2--2-2-2-2--2-2--2--2--|
E|-5-5--5-5-5-5--5-5--5--5--0-0--0-0-0-0--0-0--0--0--|


e|---------------------------------------------------|
B|---------------------------------------------------|
G|--------------------------7-7--7-7-7-7--7-7--7--7--|
D|-4-4--4-4-4-4--4-4--4--4--7-7--7-7-7-7--7-7--7--7--|
A|-4-4--4-4-4-4--4-4--4--4--5-5--5-5-5-5--5-5--5--5--|
E|-2-2--2-2-2-2--2-2--2--2---------------------------|

e|-----0------------|
B|-------0----------|
G|------------------|
D|----------2--2/4--|
A|-7-7------2--2/4--|
E|-5-5------0--0----|

1st verse/palm muted
e|----------------------------------------------------------------------|
B|----------------------------------------------------------------------|
G|-----------------------------------7-777777-7--7-7--6/7\6-------------|
D|-4-444444-4--4-4--2-222222-2--2-2--7-777777-7--7-7--------7-----------|
A|-4-444444-4--4-4--2-222222-2--2-2--5-555555-5--5-5-----------4/5\4----|
E|-2-222222-2--2-2--0-000000-0--0-0----------------------------------5--|
     ******           ******           ******
You were the one who tought me how to tie my shoelace (da da da da da da da)
You were there when I finished in second place
e|--------------------------------------------------------------------0----|
B|-----------------------------------------------------------5-5h7/10---9--|
G|-----------------------------------7x-7x-7x-7x-------0h6h7---------------|
D|-4x-4x-4x-4x--44--2x-2x-2x-2x--22--7x-7x-7x-7x-0h6h7---------------------|
A|-4x-4x-4x-4x--44--2x-2x-2x-2x--22--5x-5x-5x-5x---------------------------|
E|-2x-2x-2x-2x--22--0x-0x-0x-0x--00----------------------------------------|
You were always there for me
e|----------------------------------------------------|
B|----------------------------------------------------|
G|-----------------------------------7x-7x-7x-7x-7/9--|
D|-4x-4x-4x-4x--44--2x-2x-2x-2x--22--7x-7x-7x-7x-7/9--|
A|-4x-4x-4x-4x--44--2x-2x-2x-2x--22--5x-5x-5x-5x-5/7--|
E|-2x-2x-2x-2x--22--0x-0x-0x-0x--00-------------------|
When I broke up with a spiecial girl and my heart hurt

Chorus
Am         E5       F#m            D/C#
Did I ever tell you your my unsung hero
D           Am    Em
My guiding light, my best friend

Solo
e|----------------------------------------------------------------------|
B|-5/7-5------------------------------------------------------5-9h10p9--|
G|-------7-6-6/7-----------------------------------6-7-----6b-----------|
D|---------------7-7---------------------------6-7-----7-6--------------|
A|-------------------2/4-2-0-2-2/4-2-2-6h7p6----------------------------|
E|-------------------------------------------7--------------------------|

e|-12-19--|
B|--------|
G|--------|
D|--------|
A|--------|
E|--------|

2nd verse/palm muted
e|----------------------------------------------------------------------|
B|----------------------------------------------------------------------|
G|-----------------------------------7-777777-7--7-7--6/7\6-------------|
D|-4-444444-4--4-4--2-222222-2--2-2--7-777777-7--7-7--------7-----------|
A|-4-444444-4--4-4--2-222222-2--2-2--5-555555-5--5-5-----------4/5\4----|
E|-2-222222-2--2-2--0-000000-0--0-0----------------------------------5--|
     ******           ******           ******
You were there when I fell and shed a tear  (da da da da da da da)
You gave me strength to help confront my fears  (da da da da da da da) 
e|--------------------------------------------------------------------0----|
B|-----------------------------------------------------------5-5h7/10---9--|
G|-----------------------------------7x-7x-7x-7x-------0h6h7---------------|
D|-4x-4x-4x-4x--44--2x-2x-2x-2x--22--7x-7x-7x-7x-0h6h7---------------------|
A|-4x-4x-4x-4x--44--2x-2x-2x-2x--22--5x-5x-5x-5x---------------------------|
E|-2x-2x-2x-2x--22--0x-0x-0x-0x--00----------------------------------------|
You were always there for me
e|----------------------------------------------------|
B|----------------------------------------------------|
G|-----------------------------------7x-7x-7x-7x-7/9--|
D|-4x-4x-4x-4x--44--2x-2x-2x-2x--22--7x-7x-7x-7x-7/9--|
A|-4x-4x-4x-4x--44--2x-2x-2x-2x--22--5x-5x-5x-5x-5/7--|
E|-2x-2x-2x-2x--22--0x-0x-0x-0x--00-------------------|
You watched me grow and learn, the boy become a man
Year after year

Chorus
Am         E5       F#m            D/C#
Did I ever tell you your my unsung hero
D           Am    Em
My guiding light, my best friend

Chorus
Am         E5       F#m            D/C#
Did I ever tell you your my unsung hero
D           Am    Em
My guiding light, my best friend


(I don't know this part yet so I'm gonna' skip streight
To the chorus)


Chorus
Am         E5     F#m            D/C#
Did you know that your my unsung hero
D           Am    Em
My guiding light, my best friend

Your my hero, my hero, my hero, did you know
My hero, my hero, my hero, did you know, my hero, my hero,
My hero, did you know your my hero, did you know

And thats it hope you enjoy the song
And I'll think that what's there on this tab is 100%
Correct because Trent Crawford lead guitarist of One Dollar Short
Was lead guitarist of One Dollar Short there not together anymore
Gave what he could remember of the tab and all I had to was
So I hope You enjoy the song and good luck.
            
Tabs too difficult? Try these video lessons and learn fast.




comments powered by Disqus
↑ Back to top | Tablatures and chords are parodies/interpretations of the original songs. You may use it for private study, scholarship, research or language learning purposes only