» » »

The Show Down Tabs (ver.1)

Artists:  A B C D E F G H I J K L M N O P Q R S T U V W X Y Z # 

The Show Down Tabs (ver.1)

One Dollar Short
Rating:
0/5 (0 votes)

Hard to play? Try these video lessons and learn fast.
                
Intro
e|---------------------------------------------------------------------------
B|---------------------------------------------------------------------------
G|-------------------------------7-7-7-7-7-7-7-7--9-9-9-9-9-9-9-9------------
D|-x-x-x-x-x-x--5-5-5-5-5-5-5-5--7-7-7-7-7-7-7-7--9-9-9-9-9-9-9-9------------
A|-x-x-x-x-x-x--5-5-5-5-5-5-5-5--5-5-5-5-5-5-5-5--7-7-7-7-7-7-7-7------------
E|-x-x-x-x-x-x--3-3-3-3-3-3-3-3----------------------------------------------
                  * * * * * * *    * * * * * * *    * * * * * * *
e|---------------------------------------------------------------------------
B|---------------------------------------------------------------------------
G|-----------------------------------7-7-7-7-7-7-7-7--5-5-5-5-5-5-5-5--5--5--
D|-5-5-5-5-4-4-4-4--5-5-5-5-5-5-5-5--7-7-7-7-7-7-7-7--5-5-5-5-5-5-5-5--5--5--
A|-3-3-3-3-3-3-3-3--5-5-5-5-5-5-5-5--5-5-5-5-5-5-5-5--3-3-3-3-3-3-3-3--3--3--
E|------------------3-3-3-3-3-3-3-3------------------------------------------
                      * * * * * * *    * * * * * * *    
Verse x 2
e|---------------------------------------------------------------------------
B|--------------------------------------------------------------------------|
G|------------------7-7-7-7-7-7-7-7--9-9-9-9-9-9-9-9--5-5-5-5-5-5-5-5--------
D|-5-5-5-5-5-5-5-5--7-7-7-7-7-7-7-7--9-9-9-9-9-9-9-9--5-5-5-5-5-5-5-5--------
A|-5-5-5-5-5-5-5-5--5-5-5-5-5-5-5-5--7-7-7-7-7-7-7-7--3-3-3-3-3-3-3-3--------
E|-3-3-3-3-3-3-3-3-----------------------------------------------------------

e|---------------------------------------------------------------------------
B|---------------------------------------------------------------------------
G|------------------7-7-7-7-7-7-7-7--------------------7-7-7-----------------
D|-5-5-5-5-5-5-5-5--7-7-7-7-7-7-7-7--5-5-5-4-4-4-5-5-5-----------------------
A|-5-5-5-5-5-5-5-5--5-5-5-5-5-5-5-5------------------------------------------
E|-3-3-3-3-3-3-3-3-----------------------------------------------------------

Solo
e|---------------------------------------------------------------------------
B|-----------------------5-5--------8-8-7-7-5-5-7----------------------------
G|-----4-4-5--7-7-4-4-5------4-4-5---------------------4-4-5--7-7-4-4-5------
D|-5-5---------------------------------------------5-5-----------------------
A|---------------------------------------------------------------------------
E|---------------------------------------------------------------------------

e|---------------------------------------------------------------------------
B|---------------------------------------------------------------------------
G|-5-5-4-4-2-2-0-0-2-2-4-4-5--5----------------------------------------------
D|---------------------------------------------------------------------------
A|---------------------------------------------------------------------------
E|---------------------------------------------------------------------------

Verse

Chorus x 2
e|---------------------------------------------------------------------------
B|---------------------------------------------------------------------------
G|------------------7-7-7-7-7-7-7-7-------------------5-5-5-5-5-5-5-5--------
D|-5-5-5-5-5-5-5-5--7-7-7-7-7-7-7-7--2-2-2-2-2-2-2-2--5-5-5-5-5-5-5-5--------
A|-5-5-5-5-5-5-5-5--5-5-5-5-5-5-5-5--2-2-2-2-2-2-2-2--3-3-3-3-3-3-3-3--------
E|-3-3-3-3-3-3-3-3-------------------0-0-0-0-0-0-0-0-------------------------






e|---------------------------------------------------------------------------
B|---------------------------------------------------------------------------
G|------------------7-7-7-7-7-7-7-7--5-5-5-5-5-5-5-5-------------------------
D|-5-5-5-5-5-5-5-5--7-7-7-7-7-7-7-7--5-5-5-5-5-5-5-5-------------------------
A|-5-5-5-5-5-5-5-5--5-5-5-5-5-5-5-5--3-3-3-3-3-3-3-3-------------------------
E|-3-3-3-3-3-3-3-3-----------------------------------------------------------

Bridge
e|---------------------------------------------------------------------------
B|---------------------------------------------------------------------------
G|---------------------77-77-7-77-7-77-7-99-99-9-99-9-99-9-5-5-5-5-5-5-5-5---
D|-55-5-55-5-55-5-55-5-77-77-7-77-7-77-7-99-99-9-99-9-99-9-5-5-5-5-5-5-5-5---
A|-55-5-55-5-55-5-55-5-55-55-5-55-5-55-5-77-77-7-77-7-77-7-3-3-3-3-3-3-3-3---
E|-33-3-33-3-33-3-33-3-------------------------------------------------------
   **   **   **   **      **   **   **      **   **   **   * * * * * * * *   

Bridge Part 2 x 2
e|----0-0--0-0--0-0--0-0------0-0---0---0---0---0---0---0--------------------
B|----8-8--7-7--5-5--3-3------8-8--10--10--12--12--15--15--------------------
G|---------------------------------------------------------------------------
D|-2~----------------------2~------------------------------------------------
A|-2~----------------------2~------------------------------------------------
E|-0~----------------------0~------------------------------------------------

And my mp3 cut off there but I think that’s all the parts
Enjoy. Email corrections ( rest of song) comments other ods tabs to above address
            
Hard to play? Try these video lessons and learn fast. | Correct




comments powered by Disqus
↑ Back to top | Tablatures and chords are parodies/interpretations of the original songs. You may use it for private study, scholarship, research or language learning purposes only