>
 >
The Showdown

The Showdown Guitar Tabs

One Dollar Short - The Showdown chords, tabs, tablatures, lyrics

Guitar lessons | Add/correct | Request | Top 50 tabs Artists:  A B C D E F G H I J K L M N O P Q R S T U V W X Y Z 0-9

The Showdown Guitar Tabs – One Dollar Short

CD, Sheet music, Poster

Do you like The Showdown? Share with your friends now
Tabs
THE SHOW DOWN - One Dollar short



*= harmonic chord(done by resting your fingers above the frets)
x= Palm mute
~= ring out

Intro: (oscar mier wiener.......)
e|------------------------------------------------------------------------|
B|------------------------------------------------------------------------|
G|-------------------------------------7-x-x-x-x-x-x-x--9-x-x-x-x-x-x-x---|
D|-*-*-*-*-*-*-*-*-*--5-x-x-x-x-x-x-x--7-x-x-x-x-x-x-x--9-x-x-x-x-x-x-x---|
A|--harmonic thing----5-x-x-x-x-x-x-x--5-x-x-x-x-x-x-x--7-x-x-x-x-x-x-x---|
E|-*-*-*-*-*-*-*-*-*--3-x-x-x-x-x-x-x-------------------------------------|

e|---------------------------------------------------------------------------|
B|---------------------------------------------------------------------------|
G|-------------------------------------7-x-x-x-x-x-x-x-x--5-5-5-5-5-5-5-5-5--|
D|-5-5-5-4-4-4-4-4--5-x-x-x-x-x-x-x-x--7-x-x-x-x-x-x-x-x--5-5-5-5-5-5-5-5-5--|
A|-3-3-3-3-3-3-3-3--5-x-x-x-x-x-x-x-x--5-x-x-x-x-x-x-x-x--3-3-3-3-3-3-3-3-3--|
E|------------------3-x-x-x-x-x-x-x-x----------------------------------------|

verse: (teasing in the play ground........)RYTHME PLAYS CHORDS ABOVE
       G                 D                 E               C
e|---------------------------------------------------------------------|
B|---------------------------------------------------------------------|
G|------------------7-7-7-7-7-7-7-7--9-9-9-9-9-9-9-9--5-5-5-5-5-5-5-5--|
D|-5-5-5-5-5-5-5-5--7-7-7-7-7-7-7-7--9-9-9-9-9-9-9-9--5-5-5-5-5-5-5-5--|
A|-5-5-5-5-5-5-5-5--5-5-5-5-5-5-5-5--7-7-7-7-7-7-7-7--3-3-3-3-3-3-3-3--|
E|-3-3-3-3-3-3-3-3-----------------------------------------------------|

        G                D                     C
e|-----------------------------------|-------------------------|
B|-----------------------------------|-------------------------|
G|------------------7-7-7-7-7-7-7-7--|-------------------7-7-7-|
D|-5-5-5-5-5-5-5-5--7-7-7-7-7-7-7-7--|-5-5-5-4-4-4-5-5-5-------|
A|-5-5-5-5-5-5-5-5--5-5-5-5-5-5-5-5--|-------------------------|
E|-3-3-3-3-3-3-3-3-------------------|-------------------------|

solo: 
gtr 1:
       G           D            E             C             G          D
e|-----------|-------------|-----------|---------------|-----------|-----------|
B|-----------|-3-3---------|-5-5-------|-8-8-7-7-5-5-7-|-----------|-3-3-------|
G|-0-0-4-4-5-|-------4-4-5-|-----4-4-5-|---------------|-0-0-4-4-5-|-----4-4-5-|
D|-----------|-------------|-----------|---------------|-----------|-----------|
A|-----------|-------------|-----------|---------------|-----------|-----------|
E|-----------|-------------|-----------|---------------|-----------|-----------|

               C
e|-------------------------------|
B|-------------------------------|
G|-5-5-4-4-2-2-0-0-2-2-4-4-5--5--|
D|-------------------------------|
A|-------------------------------|
E|-------------------------------|

gtr 2: plays the chords above

chorus: (Sticks and stones........)
        G                D               E                  C
e|-----------------------------------------------------------------------|
B|-----------------------------------------------------------------------|
G|------------------7-7-7-7-7-7-7-7---------------------5-5-5-5-5-5-5-5--|
D|-5-5-5-5-5-5-5-5--7-7-7-7-7-7-7-7--2-2-2-2-2-2-2-2-2--5-5-5-5-5-5-5-5--|
A|-5-5-5-5-5-5-5-5--5-5-5-5-5-5-5-5--2-2-2-2-2-2-2-2-2--3-3-3-3-3-3-3-3--|
E|-3-3-3-3-3-3-3-3-------------------0-0-0-0-0-0-0-0-0-------------------|

        G                 D                C
e|----------------------------------------------------|
B|----------------------------------------------------|
G|------------------7-7-7-7-7-7-7-7--5-5-5-5-5-5-5-5--|
D|-5-5-5-5-5-5-5-5--7-7-7-7-7-7-7-7--5-5-5-5-5-5-5-5--|
A|-5-5-5-5-5-5-5-5--5-5-5-5-5-5-5-5--3-3-3-3-3-3-3-3--|
E|-3-3-3-3-3-3-3-3------------------------------------|

bridge 1
          G                         D                     E
e|----------------------------------------------------------------------|
B|----------------------------------------------------------------------|
G|------------------------7-7-x-x-7-x-x-7-x-x-7--9-9-x-x-9-x-x-9-x-x-9--|
D|-5-5-x-x-5-x-x-5-x-x-5--7-7-x-x-7-x-x-7-x-x-7--9-9-x-x-9-x-x-9-x-x-9--|
A|-5-5-x-x-5-x-x-5-x-x-5--5-5-x-x-5-x-x-5-x-x-5--7-7-x-x-7-x-x-7-x-x-7--|
E|-3-3-x-x-3-x-x-3-x-x-3------------------------------------------------|

        E
e|------------------|
B|------------------|
G|------------------|
D|-7-x-x-x-x-x-x-x--|
A|-7-x-x-x-x-x-x-x--|
E|-5-x-x-x-x-x-x-x--|

bridge 2
gtr 1
e|--------0-0-0-0-0-0-0-0--|---------0-0--0--0--0--0-0-0--|
B|--------8-8-7-7-5-5-7-7--|---------8-8-10-10-12-12-7-7--|
G|-------------------------|------------------------------|
D|-2-~-~-------------------|--2-~-~-----------------------|
A|-2-~-~-------------------|--2-~-~-----------------------|
E|-0-~-~-------------------|--0-~-~-----------------------|

e|--------0-0-0-0-0-0-0-0--|---------0-0--0--0--0--0--0--0--|
B|--------8-8-7-7-5-5-3-3--|---------8-8-10-10-12-12-15-15--|
G|-------------------------|--------------------------------|
D|-2-~-~-------------------|--2-~-~-------------------------|
A|-2-~-~-------------------|--2-~-~-------------------------|
E|-0-~-~-------------------|--0-~-~-------------------------|

outro
e|----------------------------------|
B|----------------------------------|
G|--5-5-5-5-5----4-4-2-2-0-~-~-~-~--|
D|----------------------------------|
A|----------------------------------|
E|----------------------------------|

SONG STRUCTURE:
INTRO x1
VERSE x2
SOLO x1
VERSE x2
CHORUS x2
BRIDGE 1 x1
BRIDGE 2 x1
CHORUS x2
SOLO x2
OUTRO x1





Comments


Popular One Dollar Short tabs & chords
Cartoons And Chalkboards Bass Tabs
Board Game Tabs
Colour Red Tabs
Fingerprints Tabs
Is This The Part? 1 Tabs
Robot Tabs
Satellite Tabs
Shots Were Fired (Bloodstains) Tabs
Some Assembly Required Tabs
Unsung Hero Tabs


Song lyrics



↑ Back to top | Tablatures and chords are parodies/interpretations of the original songs. You may use it for private study, scholarship, research or language learning purposes only
© 2014 AZChords.com Contact us | Privacy policy | DMCA | Add/correct tabs | Request tabs | Top 50 tabs