» » »

One Dollar Short, Not Pretty Enough Tabs (ver.2)

Artists:  A B C D E F G H I J K L M N O P Q R S T U V W X Y Z # 

Not Pretty Enough Tabs (ver.2)

One Dollar Short Tabs
 Rating:
4/5 (4 votes)
Not Pretty Enough lessons Tabs too difficult? Try these video lessons and learn fast
                One Dollar Short - Not Pretty Enough

Normal Tunning (E,A,D,G,B,e)

|  Legend                                      |
| x - Scratch                                  |
| * - Palm mute                                |
| % - Dont Let Ring                            |
| / and \ - Slide                              |
| /\- Pick Slide                               |
| : - Let ring                                 |
| h - hammer on                                |
| p - pull off                                 |
Intro
  
  Im a not pretty enough...
e|----------------------4--2--------------2--------------|
B|----------2-----------------4-----------------------4--|
G|-------4-----------4-----------------4-----------4-----|
D|----4-----------4-----------------4-----------4--------|
A|-2-----------1-----------------------------------------|
E|-------------------------------4-----------0-----------|

Verse One 

  I live.....
e|---------------------|
B|(x8)-(x8)-(x8)-(x8)--|
G|-4-------------------| [x2] 
D|-4----4----6----2----|
A|-2----4----6----2----|
E|------2----4----0----|
 
  I crave....
e|---------------------|
B|---------------------|
G|-4-------------------| [x1] 
D|-4----4----6----2----|
A|-2----4----6----2----|
E|------2----4----0----|
 
  I try....
e|---------------------|
B|(x8)-(x8)-(x2)-------|
G|-4-------------------| [x1]  
D|-4----4----6---------|
A|-2----4----6---------|
E|------2----4---------|

Chorus 

  Im I not Pretty Enough...
e|---------------------|
B|(x8)-(x8)-(x8)-(x8)--|
G|-4-------------------| [x2] 
D|-4----4----6----2----|
A|-2----4----6----2----|
E|------2----4----0----|
 
  Dont I Make....
e|---------------------|
B|---------------------|
G|-4-------------------|
D|-4----4----6----2----|
A|-2----4----6----2----|
E|------2----4----0----|
 
  Why do you see....
e|---------------------|
B|(x8)-(x8)-(x2)-------|
G|-4-------------------| [x1]  
D|-4----4----6---------|
A|-2----4----6---------|
E|------2----4---------|

Verse 2

  I love....
e|---------------------|
B|(x8)-(x8)-(x8)-(x8)--|
G|-4----6---------9----|[x2]
D|-4----6----6----9----|
A|-2----4----6----7----|
E|-----------4---------|
   *    *    *    *
 
  I hope.....
e|---------------------|
B|---------------------|
G|-4-------------------|
D|-4----4----6----2----|
A|-2----4----6----2----|
E|------2----4----0----|
 
  I try as hard...
e|---------------------|
B|(x8)-(x8)-(x2)-------|
G|-4-------------------| [x2] 
D|-4----4----6---------|
A|-2----4----6---------|
E|------2----4---------|

Chorus 

  Im I not Pretty Enough...
e|---------------------|
B|(x8)-(x8)-(x8)-(x8)--|
G|-4-------------------| [x2] 
D|-4----4----6----2----|
A|-2----4----6----2----|
E|------2----4----0----|
 
  Dont I Make....
e|---------------------|
B|---------------------|
G|-4-------------------|
D|-4----4----6----2----|
A|-2----4----6----2----|
E|------2----4----0----|
 
  Why do you see....
e|---------------------|
B|(x8)-(x8)-(x2)-------|
G|-4-------------------| [x1]  
D|-4----4----6---------|
A|-2----4----6---------|
E|------2----4---------|

  (While they Repeat "Why Do you see" 12 times keep doing this): 
e|---------------------|
B|(x8)-(x8)-(x8)-(x8)--|
G|-4-------------------| [x2] 
D|-4----4----6----2----|
A|-2----4----6----2----|
E|------2----4----0----|

Solo                                             
[Not Finished..]


Lyrics:
Am I not pretty enough
Is my heart too broken
Do I cry too much
Am I too outspoken

Don't I make you laugh
Should I try it harder
Why do you see right through me

I live,  I breathe, I let it rain on me
I sleep, I wake, I try hard not to break
I crave, I love, I've waited long enough
I try as hard as I can

Am I not pretty enough
Is my heart too broken
Do I cry too much
Am I too outspoken

Don't I make you laugh
Should I try it harder
Why do you see right through me

I laugh, I feel, I make believe it's 
real
I fall, I freeze, I pray down on my knees
I hope, I stand, I take it like a man
I try as hard as I can

Am I not pretty enough
Is my heart too broken
Do I cry too much
Am I too outspoken

Don't I make you laugh
Should I try it harder
Why do you see right through me
Why do you see, Why do you see, Why do you see right through me 
Why do you see, Why do you see, Why do you see right through me 
Why do you see, Why do you see, Why do you see right through me 
Why do you see, Why do you see, Why do you see right through me 

Am I not pretty enough
Is my heart too broken
Do I cry too much
Am I too outspoken

Don't I make you laugh
Should I try it harder
Why do you see right through me
Through me.
            
Submit corrections

comments powered by Disqus
↑ Back to top | One Dollar Short Tabs for Not Pretty Enough. Lyrics for acoustic guitar and electric guitar. Tablatures and chords are parodies/interpretations of the original songs. You may use it for private study, scholarship, research or language learning purposes only