» » »

One Dollar Short, Not Pretty Enough Tabs (ver.1)

Artists:  A B C D E F G H I J K L M N O P Q R S T U V W X Y Z # 

Not Pretty Enough Tabs (ver.1)

One Dollar Short Tabs
 Rating:
4/5 (4 votes)
Not Pretty Enough lessons Tabs too difficult? Try these video lessons and learn fast
                ** Standard Tunning
   ----------------

 * - Palm mute the chord/note underneath it.
 / - Slide from the note in front to the note afterwards.
 X - Mute the strings, stop sound before next note.
 > - Hold note/chord after you strum it.
 h - Hammer on

The two guitars on this TAB are separated into what each guitarist plays rather 
than lead and rhythm. LISTEN TO THE SONG FOR TIMMING!

Guitar One
*Intro*
e|----------------------4--2--------------2--------------|
B|----------2-----------------4-----------------------4--|
G|-------4-----------4-----------------4-----------4-----|
D|----4-----------4-----------------4-----------4--------|
A|-2-----------1-----------------------------------------|
E|-------------------------------4-----------0-----------|

*Verse One and Chorus*
e|---------------------|
B|---------------------|
G|-4----3--------------|
D|-4----4----6----2----|
A|-2----1----6----2----|
E|-----------4----0----|

*Verse 2*
e|---------------------|
B|---------------------|
G|-4----6----8----9----|
D|-4----6----9----9----|
A|-2----4----6----7----|
E|---------------------|

*Solo*
e|----------------------------------------------------------------------------------|
B|-----------------------------------------------12---------------------------------|
G|-8h9h8----8h9h11-9-8h9h8-----------8h9h8---8h9----9--8h9p8-/-11-9--8h9p8----------|
D|-------9-----------------9---------------9--------------------------------/11--9--|
A|-----------------------------9--7-------------------------------------------------|
E|----------------------------------------------------------------------------------|

Thats all of the solo i could figure out, sorry bout that, but you get the idea
            
Submit corrections

comments powered by Disqus
↑ Back to top | One Dollar Short Tabs for Not Pretty Enough. Lyrics for acoustic guitar and electric guitar. Tablatures and chords are parodies/interpretations of the original songs. You may use it for private study, scholarship, research or language learning purposes only