» » »

Is This The Part? Bass tabs (ver.1)

Artists:  A B C D E F G H I J K L M N O P Q R S T U V W X Y Z # 

Is This The Part? Bass tabs (ver.1)

One Dollar Short
Rating:
0/5 (0 votes)

Hard to play? Try these video lessons and learn fast.
                Intro
G]-----------------------------------------------------------------
D]-----------------------------------------------------------------
A]-2-2-2-2-2-2-2-2-2-2-2-2-2-2-2-2---------------------------------
E]--------------------------------3-3-3-3-3-3-3-3-3-3-3-3-3-3-3-3--


G]-----------------------------------------------------------------
D]-----------------------------------------------------------------
A]-5-5-5-5-5-5-5-5-5-5-5-5-5-5-5-5---------------------------------
E]--------------------------------5-5-5-5-5-5-5-5-5-5-5-5-5-5-5-5--
Play this twice but hold the last 5 (dont play it 16 times)

Verse
G]-----------------------------------------------------------------
D]-----------------------------------------------------------------
A]-2-2-2-2-2-2-2-2-------------------------------------------------X4
E]----------------5-5-5-5-5-5-5-5--3-3-3-3-3-3-3-3-3-3-3-3-3-3-3-3-


Chorus
G]-----------------------------------------------------------------
D]-----------------------------------------------------------------
A]-5-5-5-----------------------------------------------------------X2
E]---------5-5-5---3-3-3-3-3-3-3-3-3-3-3-3-3-3-3-3-----------------

then............

G]-----------------------------------------------------------------
D]-----------------------------------------------------------------
A]-5-5-5-5-5-5-5-5-------------------------------------------------X2
E]-----------------5-5-5-5-5-5-5-5--3-3-3-3-3-3-3-3-3-3-3-3-3-3-3-3

In that little solo bit just play the verse again

play the verse again the play the chorus

then in the "i'm sorry" bit play the second part of the chorus

In the bridge play the second bit of the chourus

same with the "is this the part were i say"

End 
G]-----------------------------------------------------------------
D]-----------------------------------------------------------------
A]-5-5-5-----------------------------------------------------------
E]-----------------------------------------------------------------
            
Hard to play? Try these video lessons and learn fast. | Correct




comments powered by Disqus
↑ Back to top | Tablatures and chords are parodies/interpretations of the original songs. You may use it for private study, scholarship, research or language learning purposes only