» » »

From The Start Bass tabs (ver.1)

Artists:  A B C D E F G H I J K L M N O P Q R S T U V W X Y Z # 

From The Start Bass tabs (ver.1)

One Dollar Short
Rating:
0/5 (0 votes)

Hard to play? Try these video lessons and learn fast.
                

> Means Strum
~ Means Fade Out
/ Slide Down

Intro                                                                     x1
G|---12~----------------12~--------------------------------------------------|
D|----9~----------------10~--------------------------------------------------|
A|---------------------------------------------------------------------------|
E|---------------------------------------------------------------------------|
                                                                          x2
G|---7-7-7-777--7-7-7-777--12-12-12--121212--12-12-12-121212-----------------|
D|---5-5-5-555--5-5-5-555---9--9--9---9-9-9--10-10-10-101010-----------------|
A|---------------------------------------------------------------------------|
E|---------------------------------------------------------------------------|
                                               x1
G|----7-7-7~--------------------------------------|
D|----5-5-5~--------------------------------------|
A|------------------------------------------------|
E|------------------------------------------------|
Guitar Solo                                                               x2
G|---------------------------------------------------------------------------|
D|---------------------------------------------------------------------------|
A|--------------5>----------7>--------------------5>------------7>-----------|
E|---3>-------------------------------3>-------------------------------------|
                                                   x1
G|----------------------------------------------------|
D|----------------------------------------------------|
A|-----------7--------5--------3----------------------|
E|---3~-----------------------------------3-----------|

Verse                                                                     x3
G|---------------------------------------------------------------------------|
D|---------------------------------------------------------------------------|
A|--3>---------------5>--------7>--------------------------------------------|
E|----------3>---------------------------------------------------------------|
                                                                          x1
G|---------------------------------------------------------------------------|
D|---------------------------------------------------------------------------|
A|---3>---------------------5~-----------------------------------------------|
E|--------------3>-----------------------------------------------------------|

Bass Solo                                                                 x2
G|-12-12-12-1212121212--12-12-12-1212121212--7-7-7-77777--7-7-7-77777--------|
D|--9--9--9--9-9-9-9-9--10-10-10-1010101010--5-5-5-55555--5-5-5-55555--------|
A|---------------------------------------------------------------------------|
E|---------------------------------------------------------------------------|
                              
Guitar Solo

Outro                                                                     x3
G|---------------------------------------------------------------------------|
D|---------------------------------------------------------------------------|
A|------------3>-----------------5-5-5----------------5-5-5------------------|
E|--1>-------------------3>------------------3>------------------------------|
                                                                          x1
G|---------------------------------------------------------------------------|
D|---------------------------------------------------------------------------|
A|------------3~-----------------5-5-5---------------------------------------|
E|--1>-----------------3>------------------------3/--------------------------|
            
Hard to play? Try these video lessons and learn fast. | Correct




comments powered by Disqus
↑ Back to top | Tablatures and chords are parodies/interpretations of the original songs. You may use it for private study, scholarship, research or language learning purposes only