» » »

Board Game Tabs (ver.2)

Artists:  A B C D E F G H I J K L M N O P Q R S T U V W X Y Z # 

Board Game Tabs (ver.2)

One Dollar Short
Rating:
0/5 (0 votes)

Hard to play? Try these video lessons and learn fast.
                One Dollar Short
Credit goes to Tim Bryant as he originally tabbed out the song. However..his tab was
a bit.


Intro (2nd guitar [harmony])
e|---------------------------------------------------------------------------|
B|---------------------------------------------------------------------------|
G|--9-9-9-8/9--9-9---8/9--9-9---8/9--11-9--8/9--9-9--8/9--9-9--8/9--9-9------|
D|--9-9-9-8/9--9-9---8/9--9-9---8/9--11-9--8/9--9-9--8/9--9-9--8/9--9-9------|
A|---------------------------------------------------------------------------|
E|---------------------------------------------------------------------------|

e|---------------------------------------------------------------------------|
B|------------------9--------------------------------------------------------|
G|--8/9--11-9--8/9--9-9---8/9---9-9-9----------------------------------------|
D|--8/9--11-9--8/9----9---8/9---9-9-9----------------------------------------|
A|---------------------------------------------------------------------------|
E|---------------------------------------------------------------------------|

repeat this until the chorus starts.

The main harmony of this song is in the key of F#sus2 or E6.

F#sus2
e|-------9---|
B|-------9---|
G|-------11--|
D|-------9---|
A|-----------|
E|-----------|

E6
e|-------9---|
B|-------9---|
G|-------9---|
D|-------9---|
A|-----------|
E|-----------|

With these 2 harmony chords...if u have 2 guitarists, one of them can play the main
while the other plays either of these 2 chords over them. If u are the harmony guitarist,
you can alternative constantly between these two chords and it will give a great 
between the 2 guitarists. These chords are also good for the interlude/soft bit of the
If you like to improvise the interlude bit then u can use these chords and pick the 
of them!!! Enjoy!
----------------------------------------------------
Below is the rest of the song. They are taken from 'Tim Bryant's tab of Boardgame.
his tab did not contain this harmony part in it. (which is a very good thing to have!)

Intro
e|---------------------------------------------------------------------|
B|---------------------------------------------------------------------|
G|-9-9-9-9-11-11-11-11-------------------------------------------------|
D|---------------------------------------------------------------------|
A|-7-7-7-7--9--9--9--9-------------------------------------------------|
E|---------------------------------------------------------------------|

Intro (Part 2) x 2
e|---------------------------------------------------------------------|
B|---------------------------------------------------------------------|
G|-6-6-6-6-6-6-------------------------------4-4-----------------------|
D|-6-6-6-6-6-6--7-7-7-7-7--2-2-2-2-2-2--4-4--4-4-----------------------|
A|-4-4-4-4-4-4--7-7-7-7-7--2-2-2-2-2-2--4-4--2-2-----------------------|
E|--------------5-5-5-5-5--0-0-0-0-0-0--2-2----------------------------|

Verse (part 1) x 2
e|---------------------------------------------------------------------|
B|---------------------------------------------------------------------|
G|-66-6-66-6-----------------------------44-4--------------------------|
D|-66-6-66-6--77-7-77-7--22-2-22-2--44-4-44-4--------------------------|
A|-44-4-44-4--77-7-77-7--22-2-22-2--44-4-22-2--------------------------|
E|------------55-5-55-5--00-0-00-0--22-2-------------------------------|
   **   **    **   **    **   **    **   **

Verse (part 2) x 2
e|---------------------------------------------------------------------|
B|---------------------------------------------------------------------|
G|-6-6-6-6-6-6-------------------------------4-4-----------------------|
D|-6-6-6-6-6-6--7-7-7-7-7--2-2-2-2-2-2--4-4--4-4-----------------------|
A|-4-4-4-4-4-4--7-7-7-7-7--2-2-2-2-2-2--4-4--2-2-----------------------|
E|--------------5-5-5-5-5--0-0-0-0-0-0--2-2----------------------------|

Intro (part 2) x 2

Pre Chorus x 1
e|---------------------------------------------------------------------------|
B|---------------------------------------------------------------------------|
G|----------------66-6-66-6-66-6-66-6----------------------------------------|
D|-7-7-7-7-7-7-7--66-6-66-6-66-6-66-6--77-7-77-7-77-7-77-7--4-4-4-4-4-4-4-4--|
A|-7-7-7-7-7-7-7--44-4-44-4-44-4-44-4--77-7-77-7-77-7-77-7--4-4-4-4-4-4-4-4--|
E|-5-5-5-5-5-5-5-----------------------55-5-55-5-55-5-55-5--2-2-2-2-2-2-2-2--|
                  **   **   **   **    **   **   **   **


Chorus x 3
e|---------------------------------------------------------------------|
B|---------------------------------------------------------------------|
G|-6-6-6-6-------------------------------------------------------------|
D|-6-6-6-6--2-2-4-4--7-7-7-7-6-6-4-4-----------------------------------|
A|-4-4-4-4--2-2-2-2--7-7-7-7-6-6-4-4-----------------------------------|
E|----------0-0-2-2--5-5-5-5-4-4-2-2-----------------------------------|

Post Chorus x 1
e|---------------------------------------------------------------------|
B|---------------------------------------------------------------------|
G|-6-6-6-6-------------------------------------------------------------|
D|-6-6-6-6--2-2-2-2-4--------------------------------------------------|
A|-4-4-4-4--2-2-2-2-4--------------------------------------------------|
E|----------0-0-0-0-2--------------------------------------------------|

Interlude x 1
e|---------2-----------------------------------------------------------|
B|-4-5~------5-4-------------------------------------------------------|
G|---------------4~----------------------------------------------------|
D|---------------------------------------------------------------------|
A|---------------------------------------------------------------------|
E|---------------------------------------------------------------------|

Verse (part 1) x 2

Verse (part 2) x 2

Pre Chorus x 1

Chorus x 3

Post Chorus x 1

Solo
e|-----4------------------------------------------4--------4---------4------|
B|-----------------------------------------------------------5--------------|
G|-4h6---6~-----------------------------------4h6---6---4h6------4h6---6~---|
D|--------------------------------------------------------------------------|
A|--------------------------------------------------------------------------|
E|--------------------------------------------------------------------------|

e|-----4---------4----------------------------------------------------------|
B|--------------------------------------------------------------------------|
G|-4h6---6---4h6-------4----------------------------------------------------|
D|---------------------4- x 24 -----7-7-7-7-7-7-7-7--4-4-4-4-4-4-4-4--------|
A|---------------------2------------7-7-7-7-7-7-7-7--4-4-4-4-4-4-4-4--------|
E|----------------------------------5-5-5-5-5-5-5-5--2-2-2-2-2-2-2-2--------|

Finish x 4 (verse)
            
Hard to play? Try these video lessons and learn fast. | Correct




comments powered by Disqus
↑ Back to top | Tablatures and chords are parodies/interpretations of the original songs. You may use it for private study, scholarship, research or language learning purposes only