» » »

One Dollar Short, Am I Not Pretty Enough Bass tabs (ver.1)

Artists:  A B C D E F G H I J K L M N O P Q R S T U V W X Y Z # 

Am I Not Pretty Enough Bass tabs (ver.1)

One Dollar Short Tabs
Rating:
0/5 (0 votes)
Am I Not Pretty Enough lessons Tabs too difficult? Try these video lessons and learn fast
                This is really easy.  Listen to the song to work out rythms.

--------------------------------

Intro (verse 1)

Guitar two strain then bass

G|-------------------------------------------------------|
D|-------------------------------------------------------|
A|-2-----------1-----------------------------------------|
E|------------------------------4-----------0------------|

G|-------------------------------------------------------|
D|-------------------------------------------------------|
A|-2-----------4-----------------------------------------|
E|------------------------------0------------------------|

Verse 2

G|-------------------------------------------------------|
D|-------------------------------------------------------|
A|-2-----------------------------------------------------|
E|-------------2----------------4-----------0------------|

G|-------------------------------------------------------|
D|------------------------------1-----------2------------|
A|-2-----------4-----------------------------------------|
E|-------------------------------------------------------|

G|-------------------------------------------------------|
D|-------------------------------------------------------|
A|-2-----------1-----------------------------------------|
E|------------------------------4-----------0------------|

G|-------------------------------------------------------|
D|-------------------------------------------------------|
A|-2-----------4-----------------------------------------|
E|------------------------------0------------------------|

chorus

G|-------------------------------------------------------|
D|-------------------------------------------------------|
A|-2-----------------------------------------------------|
E|-------------2----------------4-----------0------------|

G|-------------------------------------------------------|
D|-------------------------------------------------------|
A|-2-----------4-----------------------------------------|
E|------------------------------4-----------0------------|

G|-------------------------------------------------------|
D|-------------------------------------------------------|
A|-2-----------1-----------------------------------------|
E|------------------------------4-----------0------------|

G|-------------------------------------------------------|
D|-------------------------------------------------------|
A|-2-----------4-----------------------------------------|
E|------------------------------0------------------------|

Verse 3 (4 strains - see verse 2 above)

Chorus (4 strains - see above)
(no break - straight into bridge)

Bridge (why do ya see, why do ya see...)

G|-------------------------------------------------------|
D|-------------------------------------------------------|
A|-2-----------------------------------------------------|
E|-------------2----------------0------------------------|

G|-------------------------------------------------------|
D|-------------------------------------------------------|
A|-2-----------------------------------------------------|
E|-------------2----------------0------------------------|

G|-------------------------------------------------------|
D|-------------------------------------------------------|
A|-2-----------4-----------------------------------------|
E|------------------------------0------------------------|

G|-------------------------------------------------------|
D|-------------------------------------------------------|
A|-2-----------------------------------------------------|
E|-------------2----------------0------------------------|

Guitar Solo (Chorus - see above)

Finish

G|-------------------------------------------------------|
D|------------------------------2------------------------|
A|----------------------------------------------2--------|
E|-0-----------0-----------------------------------------|
            
Submit corrections

comments powered by Disqus
↑ Back to top | One Dollar Short Bass for Am I Not Pretty Enough. Lyrics for acoustic guitar and electric guitar. Tablatures and chords are parodies/interpretations of the original songs. You may use it for private study, scholarship, research or language learning purposes only