» » »

One Direction, What Make You Beautiful Tabs (ver.8)

Artists:  A B C D E F G H I J K L M N O P Q R S T U V W X Y Z # 

What Make You Beautiful Tabs (ver.8)

One Direction Tabs
 Rating:
4/5 (4 votes)
What Make You Beautiful lessons Tabs too difficult? Try these video lessons and learn fast
1
                One Direction: 'What Makes You Beautiful'

Standard Tuning


Intro:

e|-----------------------------------------------------|
B|-----------------------------------------------------|
G|-----------------------------------------------------|
D|---6---6------------------6---6----------------------|
A|---7---7-4---4-6--6-6-6---7---7-4---4-6-6-6-6--------|
E|---0---0-5---5-7--7-7-7---0---0-5---5-7-7-7-7--------|


Verse:

e|---------------------------------------------------------------------------|
B|---------------------------------------------------------------------------|
G|---------------------------------------------------------------------------|
D|---6---6---------------------6---6-------------------6---6-----------------|
A|---7---7-4---4-6---6-6-6-----7---7-4---4-6---6-6-6---7---7-4---4-6---6-6-6-|
E|---0---0-5---5-7---7-7-7-----0---0-5---5-7---7-7-7---0---0-5---5-7---7-7-7-|

e|-------------------------------------------|
B|-------------------------------------------|
G|-------------------------------------------|
D|---6---6-----------------------------------|
A|---7---7-4---4-6-6-6-6---------------------|
E|---0---0-5---5-7-7-7-7---------------------|


Pre-Chorus:

e|-(12)-(12)-(12)-(12)-(12)-(12)-(12)-(12)-(12)-(12)-(12)-(12)-----|
B|--9----9----9----9----9----9----9----9----9----9----9----9-------|
G|--9----9----9----9----9----9----9----9----9----9----9----9-------|
D|-(9)--(9)--(9)--(9)--(9)--(9)--(9)--(9)--(9)--(9)--(9)--(9)------|
A|-----------------------------------------------------------------|
E|-----------------------------------------------------------------|


Chorus: (Distortion)

e|---------------------------------------------------------------------|
B|-------------------------------------4-------------------------------|
G|-------2-2--4-4--4---------2-2--4-4--4----------2-2--6-6--4-4--------|
D|--2-2--2-2--4-4--4----2-2--2-2--4-4--4-----2-2--2-2--6-6--4-4-----2~-| x2
A|--2-2--0-0--2-2--2----2-2--0-0--2-2--2-----2-2--0-0--4-4--2-2-----2~-|
E|--0-0-----------------0-0------------------0-0--------------------0~-|
                                                                  let ring

A 2nd guitar plays this instead of the last chord, the second time the chorus is played:

e|-----------------------------------------------------------------------|
B|---------------14--11---9-9-9-9-9-7---------------------14--11--4-4-4--|
G|-9--9--11--13-----------------------9----9--9--11--13-----------4-4-4--|
D|----------------------------------------------------------------4-4-4--|
A|----------------------------------------------------------------2-2-2--|
E|-----------------------------------------------------------------------|


Pre-Verse:

e|-------------------------|
B|-------------------------|
G|---------6---6-8--8------|
D|---6---6-7---7-9--9-9----|
A|---7---7-7---7-9--9-9-6--|
E|---0---0-5---5-7--7-7-7--|


Verse:

e|---------------------------------------------------------------------------|
B|---------------------------------------------------------------------------|
G|---------------------------------------------------------------------------|
D|---6---6---------------------6---6-------------------6---6-----------------|
A|---7---7-4---4-6---6-6-6-----7---7-4---4-6---6-6-6---7---7-4---4-6---6-6-6-|
E|---0---0-5---5-7---7-7-7-----0---0-5---5-7---7-7-7---0---0-5---5-7---7-7-7-|

e|-------------------------------------------|
B|-------------------------------------------|
G|-------------------------------------------|
D|---6---6-----------------------------------|
A|---7---7-4---4-6-6-6-6---------------------|
E|---0---0-5---5-7-7-7-7---------------------|


Pre-Chorus:

e|-(12)-(12)-(12)-(12)-(12)-(12)-(12)-(12)-(12)-(12)-(12)-(12)-----|
B|--9----9----9----9----9----9----9----9----9----9----9----9-------|
G|--9----9----9----9----9----9----9----9----9----9----9----9-------|
D|-(9)--(9)--(9)--(9)--(9)--(9)--(9)--(9)--(9)--(9)--(9)--(9)------|
A|-----------------------------------------------------------------|
E|-----------------------------------------------------------------|


Chorus: (Distortion)

e|---------------------------------------------------------------------|
B|-------------------------------------4-------------------------------|
G|-------2-2--4-4--4---------2-2--4-4--4----------2-2--6-6--4-4--------|
D|--2-2--2-2--4-4--4----2-2--2-2--4-4--4-----2-2--2-2--6-6--4-4-----2~-| x2
A|--2-2--0-0--2-2--2----2-2--0-0--2-2--2-----2-2--0-0--4-4--2-2-----2~-|
E|--0-0-----------------0-0------------------0-0--------------------0~-|
                                                                  let ring

A 2nd guitar plays this instead of the last chord, the second time the chorus is played:

e|-----------------------------------------------------------------------|
B|---------------14--11---9-9-9-9-9-7---------------------14--11--4-4-4--|
G|-9--9--11--13-----------------------9----9--9--11--13-----------4-4-4--|
D|----------------------------------------------------------------4-4-4--|
A|----------------------------------------------------------------2-2-2--|
E|-----------------------------------------------------------------------|


Bridge:

e|-(12)-(12)-(12)-(12)-(12)-(12)-(12)-(12)-(12)-(12)-(12)-(12)-----|
B|--9----9----9----9----9----9----9----9----9----9----9----9-------|
G|--9----9----9----9----9----9----9----9----9----9----9----9-------|
D|-(9)--(9)--(9)--(9)--(9)--(9)--(9)--(9)--(9)--(9)--(9)--(9)------|
A|-----------------------------------------------------------------|
E|-----------------------------------------------------------------|

e|---------------------|
B|---------------------|
G|--11--11-11/13/11--9-|     Bridge x2
D|---------------------|
A|---------------------|
E|---------------------|


Chorus: (Distortion)

e|---------------------------------------------------------------------|
B|-------------------------------------4-------------------------------|
G|-------2-2--4-4--4---------2-2--4-4--4----------2-2--6-6--4-4--------|
D|--2-2--2-2--4-4--4----2-2--2-2--4-4--4-----2-2--2-2--6-6--4-4-----2~-|
A|--2-2--0-0--2-2--2----2-2--0-0--2-2--2-----2-2--0-0--4-4--2-2-----2~-|
E|--0-0-----------------0-0------------------0-0--------------------0~-|
                                                                  let ring

Play the first part just once and then:

e|--------------------------------------|
B|---------------14--11---9-9-9-9-9-7---|
G|-9--9--11--13-----------------------9-|
D|--------------------------------------|
A|--------------------------------------|
E|--------------------------------------|

Directly play the Chorus again

e|---------------------------------------------------------------------|
B|-------------------------------------4-------------------------------|
G|-------2-2--4-4--4---------2-2--4-4--4----------2-2--6-6--4-4--------|
D|--2-2--2-2--4-4--4----2-2--2-2--4-4--4-----2-2--2-2--6-6--4-4-----2~-| x2
A|--2-2--0-0--2-2--2----2-2--0-0--2-2--2-----2-2--0-0--4-4--2-2-----2~-|
E|--0-0-----------------0-0------------------0-0--------------------0~-|
                                                                  let ring

Now the first guitar keeps playing the last chord (Em) and the 2nd guitar plays this 
instead of the last chord:

e|--------------------------------------|
B|---------------14--11---9-9-9-9-9-7---|
G|-9--9--11--13-----------------------9-|  at the and play this x2 and then
D|--------------------------------------|
A|--------------------------------------|
E|--------------------------------------|

e|---------------------------------|
B|------------------14--11--4-4----|
G|---9--9--11--13-----------4-4----|
D|--------------------------4-4-2--|
A|--------------------------2-2-2--|
E|------------------------------0--|
            
Submit corrections

comments powered by Disqus
↑ Back to top | One Direction Tabs for What Make You Beautiful. Lyrics for acoustic guitar and electric guitar. 1 Tablatures and chords are parodies/interpretations of the original songs. You may use it for private study, scholarship, research or language learning purposes only