» » »

One Direction, One Thing Tabs (ver.3)

Artists:  A B C D E F G H I J K L M N O P Q R S T U V W X Y Z # 

One Thing Tabs (ver.3)

One Direction Tabs
 Rating:
4/5 (4 votes)
One Thing lessons Tabs too difficult? Try these video lessons and learn fast
1
                (Intro)
I was just messin 'round with my guitar and ended up playin one thing by one 
direction.Sryy its just the verse but it is very,very acurret.

P.S srry 'bout my spelling



E---11-11---6-6-6---11-11---11-11---6-6-6---4-4---4-4---6-6---11-11---11---6-|
A---10-10---5-5-5---10-10---10-10---5-5-5---3-3---3-3---5-5---10-10---10---5-|
D----------------------------------------------------------------------------|
G----------------------------------------------------------------------------|
B----------------------------------------------------------------------------|
E----------------------------------------------------------------------------|

E---11----------------------------------------------------------------------|
A---10----------------------------------------------------------------------|
D---------------------------------------------------------------------------|
G---------------------------------------------------------------------------|
B---------------------------------------------------------------------------|
E---------------------------------------------------------------------------|
            
Submit corrections

comments powered by Disqus
↑ Back to top | One Direction Tabs for One Thing. Lyrics for acoustic guitar and electric guitar. 1 Tablatures and chords are parodies/interpretations of the original songs. You may use it for private study, scholarship, research or language learning purposes only