>
 >
Moments

Moments Guitar Tabs

One Direction - Moments chords, tabs, tablatures, lyrics

Guitar lessons | Add/correct | Request | Top 50 tabs Artists:  A B C D E F G H I J K L M N O P Q R S T U V W X Y Z 0-9

Moments Guitar Tabs – One Direction

CD, Sheet music, Poster

Do you like Moments? Share with your friends now
ChordsChords v2Chords v3Chords v4TabsTabs v2Ukulele
Hi, this is my first ever tab so I'm not sure if it's right (I know the F's hammer on's 
are wrong, but it's close enough) I just did it by ear so it's my interpretation of it. 
I'll fix them up :)

For the picking of the guitar strings I play the bass notes with my thumb and the rest 
with either my second, third of fourth finger. To get the timing right you can say in 
your head "hot chocolate everybody" or "pineapple coca-cola" and try play along to that.

Capo: 2nd fret
Song Title: Moments

[VERSE 1]
Shut the door turn the light off
I wanna be
        C                C                   C                  C
e:-----------------|-----------------|-----------------|-----------------|
B:-1---------1-----|-1---------1-----|-1---------1-----|-1---------1-----|
G:-------0-------0-|-------0-------0-|-------0-------0-|-------0-------0-|
D:-----2-------2---|-----2-------2---|-----2-------2---|-----2-------2---|
A:-3-------3-------|-3-------3-------|-3-------3-------|-3-------3-------|
E:-----------------|-----------------|-----------------|-----------------|
with you
I wanna feel your love
I wanna lay
        G                  G                 G                 G
e:-----------------|-----------------|-----------------|-----------------|
B:-0---------0-----|-0---------0-----|-0---------0-----|-0---------0-----|
G:-------0-------0-|-------0-------0-|-------0-------0-|-------0-------0-|
D:-----0-------0---|-----0-------0---|-----0-------0---|-----0-------0---|
A:-----------------|-----------------|-----------------|-----------------|
E:-3-------3-------|-3-------3-------|-3-------3-------|-3-------3-------|
beside you
I cannot hide this even though I try
        Am                Am                   Am                  Am
e:-----------------|-----------------|-----------------|-----------------|
B:-1---------1-----|-0h1-------1-----|-1---------1-----|-0h1-------1-----|
G:-------2-------2-|-------2-------2-|-------2-------2-|-------2-------2-|
D:-----2-------2---|-----2-------2---|-----2-------2---|-----2-------2---|
A:-0-------0-------|-0-------0-------|-0-------0-------|-0-------0-------|
E:-----------------|-----------------|-----------------|-----------------|

        F                  F                 F                F
e:-----------------|-----------------|-----------------|-----------------|
B:-1---------1-----|-0---------0-----|-0h1-------1-----|-1---------1-----|
G:-------2-------2-|-------2-------2-|-------2-------2-|-------2-------2-|
D:-----3-------3---|-----3-------3---|-----3-------3---|-----3-------3---|
A:-----------------|-----------------|-----------------|-----------------|
E:-1-------1-------|-1-------1-------|-1-------1-------|-1-------1-------|
Heart beats harder
Time escapes me
Trembling hands
        C                C                   C                  C
e:-----------------|-----------------|-----------------|-----------------|
B:-1---------1-----|-1---------1-----|-1---------1-----|-1---------1-----|
G:-------0-------0-|-------0-------0-|-------0-------0-|-------0-------0-|
D:-----2-------2---|-----2-------2---|-----2-------2---|-----2-------2---|
A:-3-------3-------|-3-------3-------|-3-------3-------|-3-------3-------|
E:-----------------|-----------------|-----------------|-----------------|
touch skin
It makes this
        G                  G                 G                 G
e:-----------------|-----------------|-----------------|-----------------|
B:-0---------0-----|-0---------0-----|-0---------0-----|-0---------0-----|
G:-------0-------0-|-------0-------0-|-------0-------0-|-------0-------0-|
D:-----0-------0---|-----0-------0---|-----0-------0---|-----0-------0---|
A:-----------------|-----------------|-----------------|-----------------|
E:-3-------3-------|-3-------3-------|-3-------3-------|-3-------3-------|
And the tears stream down my face
        Am                Am                   Am                  Am
e:-----------------|-----------------|-----------------|-----------------|
B:-1---------1-----|-0h1-------1-----|-1---------1-----|-0h1-------1-----|
G:-------2-------2-|-------2-------2-|-------2-------2-|-------2-------2-|
D:-----2-------2---|-----2-------2---|-----2-------2---|-----2-------2---|
A:-0-------0-------|-0-------0-------|-0-------0-------|-0-------0-------|
E:-----------------|-----------------|-----------------|-----------------|

        F                  F                 F                F
e:-----------------|-----------------|-----------------|-----------------|
B:-1---------1-----|-0---------0-----|-0h1-------1-----|-1---------1-----|
G:-------2-------2-|-------2-------2-|-------2-------2-|-------2-------2-|
D:-----3-------3---|-----3-------3---|-----3-------3---|-----3-------3---|
A:-----------------|-----------------|-----------------|-----------------|
E:-1-------1-------|-1-------1-------|-1-------1-------|-1-------1-------|
If we could only have this life for one more day
        Am                  G                 C               F
e:-----------------|-----------------|-----------------|-----------------|
B:-1---------1-----|-0---------0-----|-1--------1------|-1----------1----|
G:------2--------2-|------0--------0-|-------0-------0-|-------2-------2-|
D:-----2-------2---|-----0-------0---|-----2-------2---|-----3--------3--|
A:-0-------0-------|-----------------|-3-------3-------|-----------------|
E:-----------------|-3-------3-------|-----------------|-1--------1------|
If we could only turn back time
        Am                  G                 F                F
e:-----------------|-----------------|-----------------|-----------------|
B:-1---------1-----|-0---------0-----|-1----------1----|-1---------------|
G:------2--------2-|------0--------0-|-------2-------2-|-----------------|
D:-----2-------2---|-----0-------0---|-----3--------3--|-----------------|
A:-0-------0-------|-----------------|-----------------|-----------------|
E:-----------------|-3-------3-------|-1--------1------|-1---------------|


[CHORUS]
              C
You know I'll be
Your life, your voice your reason to
        C                C                   C                  C
e:-----------------|-----------------|-----------------|-----------------|
B:-1---------1-----|-1---------1-----|-1---------1-----|-1---------1-----|
G:-------0-------0-|-------0-------0-|-------0-------0-|-------0-------0-|
D:-----2-------2---|-----2-------2---|-----2-------2---|-----2-------2---|
A:-3-------3-------|-3-------3-------|-3-------3-------|-3-------3-------|
E:-----------------|-----------------|-----------------|-----------------|
be
My love, my heart
Is breathing for this
        G                  G                 G                 G
e:-----------------|-----------------|-----------------|-----------------|
B:-0---------0-----|-0---------0-----|-0---------0-----|-0---------0-----|
G:-------0-------0-|-------0-------0-|-------0-------0-|-------0-------0-|
D:-----0-------0---|-----0-------0---|-----0-------0---|-----0-------0---|
A:-----------------|-----------------|-----------------|-----------------|
E:-3-------3-------|-3-------3-------|-3-------3-------|-3-------3-------|
Moment in time
I'll find the words to say
        Am                Am                   Am                  Am
e:-----------------|-----------------|-----------------|-----------------|
B:-1---------1-----|-0h1-------1-----|-1---------1-----|-0h1-------1-----|
G:-------2-------2-|-------2-------2-|-------2-------2-|-------2-------2-|
D:-----2-------2---|-----2-------2---|-----2-------2---|-----2-------2---|
A:-0-------0-------|-0-------0-------|-0-------0-------|-0-------0-------|
E:-----------------|-----------------|-----------------|-----------------|
Before you leave me today
        F                  F                 F                F
e:-----------------|-----------------|-----------------|-----------------|
B:-1---------1-----|-0---------0-----|-0h1-------1-----|-1---------1-----|
G:-------2-------2-|-------2-------2-|-------2-------2-|-------2-------2-|
D:-----3-------3---|-----3-------3---|-----3-------3---|-----3-------3---|
A:-----------------|-----------------|-----------------|-----------------|
E:-1-------1-------|-1-------1-------|-1-------1-------|-1-------1-------|



[VERSE 2]

Close the door
Throw the key
Don't wanna be reminded
        C                C                   C                  C
e:-----------------|-----------------|-----------------|-----------------|
B:-1---------1-----|-1---------1-----|-1---------1-----|-1---------1-----|
G:-------0-------0-|-------0-------0-|-------0-------0-|-------0-------0-|
D:-----2-------2---|-----2-------2---|-----2-------2---|-----2-------2---|
A:-3-------3-------|-3-------3-------|-3-------3-------|-3-------3-------|
E:-----------------|-----------------|-----------------|-----------------|
Don't wanna be seen
Don't wanna be without you
        G                  G                 G                 G
e:-----------------|-----------------|-----------------|-----------------|
B:-0---------0-----|-0---------0-----|-0---------0-----|-0---------0-----|
G:-------0-------0-|-------0-------0-|-------0-------0-|-------0-------0-|
D:-----0-------0---|-----0-------0---|-----0-------0---|-----0-------0---|
A:-----------------|-----------------|-----------------|-----------------|
E:-3-------3-------|-3-------3-------|-3-------3-------|-3-------3-------|
My judgement is clouded
Like the night sky
        Am                Am                   Am                  Am
e:-----------------|-----------------|-----------------|-----------------|
B:-1---------1-----|-0h1-------1-----|-1---------1-----|-0h1-------1-----|
G:-------2-------2-|-------2-------2-|-------2-------2-|-------2-------2-|
D:-----2-------2---|-----2-------2---|-----2-------2---|-----2-------2---|
A:-0-------0-------|-0-------0-------|-0-------0-------|-0-------0-------|
E:-----------------|-----------------|-----------------|-----------------|

        F                  F                 F                F
e:-----------------|-----------------|-----------------|-----------------|
B:-1---------1-----|-0---------0-----|-0h1-------1-----|-1---------1-----|
G:-------2-------2-|-------2-------2-|-------2-------2-|-------2-------2-|
D:-----3-------3---|-----3-------3---|-----3-------3---|-----3-------3---|
A:-----------------|-----------------|-----------------|-----------------|
E:-1-------1-------|-1-------1-------|-1-------1-------|-1-------1-------|
Undecided
Voice is numb
Try to scream out
        C                C                   C                  C
e:-----------------|-----------------|-----------------|-----------------|
B:-1---------1-----|-1---------1-----|-1---------1-----|-1---------1-----|
G:-------0-------0-|-------0-------0-|-------0-------0-|-------0-------0-|
D:-----2-------2---|-----2-------2---|-----2-------2---|-----2-------2---|
A:-3-------3-------|-3-------3-------|-3-------3-------|-3-------3-------|
E:-----------------|-----------------|-----------------|-----------------|
my lungs
But it makes this harder
        G                  G                 G                 G
e:-----------------|-----------------|-----------------|-----------------|
B:-0---------0-----|-0---------0-----|-0---------0-----|-0---------0-----|
G:-------0-------0-|-------0-------0-|-------0-------0-|-------0-------0-|
D:-----0-------0---|-----0-------0---|-----0-------0---|-----0-------0---|
A:-----------------|-----------------|-----------------|-----------------|
E:-3-------3-------|-3-------3-------|-3-------3-------|-3-------3-------|
And the tears stream down my face
        Am                Am                   Am                  Am
e:-----------------|-----------------|-----------------|-----------------|
B:-1---------1-----|-0h1-------1-----|-1---------1-----|-0h1-------1-----|
G:-------2-------2-|-------2-------2-|-------2-------2-|-------2-------2-|
D:-----2-------2---|-----2-------2---|-----2-------2---|-----2-------2---|
A:-0-------0-------|-0-------0-------|-0-------0-------|-0-------0-------|
E:-----------------|-----------------|-----------------|-----------------|

        F                  F                 F                F
e:-----------------|-----------------|-----------------|-----------------|
B:-1---------1-----|-0---------0-----|-0h1-------1-----|-1---------1-----|
G:-------2-------2-|-------2-------2-|-------2-------2-|-------2-------2-|
D:-----3-------3---|-----3-------3---|-----3-------3---|-----3-------3---|
A:-----------------|-----------------|-----------------|-----------------|
E:-1-------1-------|-1-------1-------|-1-------1-------|-1-------1-------|
If we could only have this life for one more day
        Am                  G                 C               F
e:-----------------|-----------------|-----------------|-----------------|
B:-1---------1-----|-0---------0-----|-1--------1------|-1----------1----|
G:------2--------2-|------0--------0-|-------0-------0-|-------2-------2-|
D:-----2-------2---|-----0-------0---|-----2-------2---|-----3--------3--|
A:-0-------0-------|-----------------|-3-------3-------|-----------------|
E:-----------------|-3-------3-------|-----------------|-1--------1------|
If we could only turn back time
        Am                  G                 F                F
e:-----------------|-----------------|-----------------|-----------------|
B:-1---------1-----|-0---------0-----|-1----------1----|-1---------------|
G:------2--------2-|------0--------0-|-------2-------2-|-----------------|
D:-----2-------2---|-----0-------0---|-----3--------3--|-----------------|
A:-0-------0-------|-----------------|-----------------|-----------------|
E:-----------------|-3-------3-------|-1--------1------|-1---------------|


[CHORUS]
              C
You know I'll be
Your life, your voice your reason to
        C                C                   C                  C
e:-----------------|-----------------|-----------------|-----------------|
B:-1---------1-----|-1---------1-----|-1---------1-----|-1---------1-----|
G:-------0-------0-|-------0-------0-|-------0-------0-|-------0-------0-|
D:-----2-------2---|-----2-------2---|-----2-------2---|-----2-------2---|
A:-3-------3-------|-3-------3-------|-3-------3-------|-3-------3-------|
E:-----------------|-----------------|-----------------|-----------------|
be
My love, my heart
Is breathing for this
        G                  G                 G                 G
e:-----------------|-----------------|-----------------|-----------------|
B:-0---------0-----|-0---------0-----|-0---------0-----|-0---------0-----|
G:-------0-------0-|-------0-------0-|-------0-------0-|-------0-------0-|
D:-----0-------0---|-----0-------0---|-----0-------0---|-----0-------0---|
A:-----------------|-----------------|-----------------|-----------------|
E:-3-------3-------|-3-------3-------|-3-------3-------|-3-------3-------|
Moment in time
I'll find the words to say
        Am                Am                   Am                  Am
e:-----------------|-----------------|-----------------|-----------------|
B:-1---------1-----|-0h1-------1-----|-1---------1-----|-0h1-------1-----|
G:-------2-------2-|-------2-------2-|-------2-------2-|-------2-------2-|
D:-----2-------2---|-----2-------2---|-----2-------2---|-----2-------2---|
A:-0-------0-------|-0-------0-------|-0-------0-------|-0-------0-------|
E:-----------------|-----------------|-----------------|-----------------|
Before you leave me today
        F                  F                 F                F
e:-----------------|-----------------|-----------------|-----------------|
B:-1---------1-----|-0---------0-----|-0h1-------1-----|-1---------1-----|
G:-------2-------2-|-------2-------2-|-------2-------2-|-------2-------2-|
D:-----3-------3---|-----3-------3---|-----3-------3---|-----3-------3---|
A:-----------------|-----------------|-----------------|-----------------|
E:-1-------1-------|-1-------1-------|-1-------1-------|-1-------1-------|


[VERSE 3]
Flashes left in my mind
Going back to the time
Playing games in the street
        Am                  G                 C               F
e:-----------------|-----------------|-----------------|-----------------|
B:-1---------1-----|-0---------0-----|-1--------1------|-1----------1----|
G:------2--------2-|------0--------0-|-------0-------0-|-------2-------2-|
D:-----2-------2---|-----0-------0---|-----2-------2---|-----3--------3--|
A:-0-------0-------|-----------------|-3-------3-------|-----------------|
E:-----------------|-3-------3-------|-----------------|-1--------1------|
Kicking balls with my feet
Dancing on with my toes
Standing close to the edge
There's a pile of my clothes at the
        Am                  G                 C               F
e:-----------------|-----------------|-----------------|-----------------|
B:-1---------1-----|-0---------0-----|-1--------1------|-1----------1----|
G:------2--------2-|------0--------0-|-------0-------0-|-------2-------2-|
D:-----2-------2---|-----0-------0---|-----2-------2---|-----3--------3--|
A:-0-------0-------|-----------------|-3-------3-------|-----------------|
E:-----------------|-3-------3-------|-----------------|-1--------1------|
end of your bed
As I feel myself fall
Make a joke of it all
        Am                  G                 F                F
e:-----------------|-----------------|-----------------|-----------------|
B:-1---------1-----|-0---------0-----|-1----------1----|-1---------------|
G:------2--------2-|------0--------0-|-------2-------2-|-----------------|
D:-----2-------2---|-----0-------0---|-----3--------3--|-----------------|
A:-0-------0-------|-----------------|-----------------|-----------------|
E:-----------------|-3-------3-------|-1--------1------|-1---------------|


[CHORUS]
              C
You know I'll be
Your life, your voice your reason to
        C                C                   C                  C
e:-----------------|-----------------|-----------------|-----------------|
B:-1---------1-----|-1---------1-----|-1---------1-----|-1---------1-----|
G:-------0-------0-|-------0-------0-|-------0-------0-|-------0-------0-|
D:-----2-------2---|-----2-------2---|-----2-------2---|-----2-------2---|
A:-3-------3-------|-3-------3-------|-3-------3-------|-3-------3-------|
E:-----------------|-----------------|-----------------|-----------------|
be
My love, my heart
Is breathing for this
        G                  G                 G                 G
e:-----------------|-----------------|-----------------|-----------------|
B:-0---------0-----|-0---------0-----|-0---------0-----|-0---------0-----|
G:-------0-------0-|-------0-------0-|-------0-------0-|-------0-------0-|
D:-----0-------0---|-----0-------0---|-----0-------0---|-----0-------0---|
A:-----------------|-----------------|-----------------|-----------------|
E:-3-------3-------|-3-------3-------|-3-------3-------|-3-------3-------|
Moment in time
I'll find the words to say
        Am                Am                   Am                  Am
e:-----------------|-----------------|-----------------|-----------------|
B:-1---------1-----|-0h1-------1-----|-1---------1-----|-0h1-------1-----|
G:-------2-------2-|-------2-------2-|-------2-------2-|-------2-------2-|
D:-----2-------2---|-----2-------2---|-----2-------2---|-----2-------2---|
A:-0-------0-------|-0-------0-------|-0-------0-------|-0-------0-------|
E:-----------------|-----------------|-----------------|-----------------|
Before you leave me today
        F                  F                 F                F
e:-----------------|-----------------|-----------------|-----------------|
B:-1---------1-----|-0---------0-----|-0h1-------1-----|-1---------1-----|
G:-------2-------2-|-------2-------2-|-------2-------2-|-------2-------2-|
D:-----3-------3---|-----3-------3---|-----3-------3---|-----3-------3---|
A:-----------------|-----------------|-----------------|-----------------|
E:-1-------1-------|-1-------1-------|-1-------1-------|-1-------1-------|


[CHORUS]
              C
You know I'll be
Your life, your voice your reason to
        C                C                   C                  C
e:-----------------|-----------------|-----------------|-----------------|
B:-1---------1-----|-1---------1-----|-1---------1-----|-1---------1-----|
G:-------0-------0-|-------0-------0-|-------0-------0-|-------0-------0-|
D:-----2-------2---|-----2-------2---|-----2-------2---|-----2-------2---|
A:-3-------3-------|-3-------3-------|-3-------3-------|-3-------3-------|
E:-----------------|-----------------|-----------------|-----------------|
be
My love, my heart
Is breathing for this
        G                  G                 G                 G
e:-----------------|-----------------|-----------------|-----------------|
B:-0---------0-----|-0---------0-----|-0---------0-----|-0---------0-----|
G:-------0-------0-|-------0-------0-|-------0-------0-|-------0-------0-|
D:-----0-------0---|-----0-------0---|-----0-------0---|-----0-------0---|
A:-----------------|-----------------|-----------------|-----------------|
E:-3-------3-------|-3-------3-------|-3-------3-------|-3-------3-------|
Moment in time
I'll find the words to say
        Am                Am                   Am                  Am
e:-----------------|-----------------|-----------------|-----------------|
B:-1---------1-----|-0h1-------1-----|-1---------1-----|-0h1-------1-----|
G:-------2-------2-|-------2-------2-|-------2-------2-|-------2-------2-|
D:-----2-------2---|-----2-------2---|-----2-------2---|-----2-------2---|
A:-0-------0-------|-0-------0-------|-0-------0-------|-0-------0-------|
E:-----------------|-----------------|-----------------|-----------------|
Before you leave me today
        F                  F                 F                F
e:-----------------|-----------------|-----------------|-----------------|
B:-1---------1-----|-0---------0-----|-0h1-------1-----|-1---------1-----|
G:-------2-------2-|-------2-------2-|-------2-------2-|-------2-------2-|
D:-----3-------3---|-----3-------3---|-----3-------3---|-----3-------3---|
A:-----------------|-----------------|-----------------|-----------------|
E:-1-------1-------|-1-------1-------|-1-------1-------|-1-------1-------|
        Am                  G                 F
e:-----------------|-----------------|-----------------|
B:-1---------1-----|-0---------0-----|-1---------------|
G:------2--------2-|------0--------0-|-----------------|
D:-----2-------2---|-----0-------0---|-----------------|
A:-0-------0-------|-----------------|-----------------|
E:-----------------|-3-------3-------|-1---------------|





Comments


Popular One Direction tabs & chords
1d Medley Chords
Alive 1 Chords
Cmon Cmon Chords
Irresistible 2 Chords
Through The Dark 1 Chords
Truly Madly Deeply Chords
Little Things Tabs
Live While Were YoungSolo Tabs
Shes Not Afraid Intro Tabs
Nobody Compares Ukulele


Song lyrics



↑ Back to top | Tablatures and chords are parodies/interpretations of the original songs. You may use it for private study, scholarship, research or language learning purposes only
© 2014 AZChords.com Contact us | Privacy policy | DMCA | Add/correct tabs | Request tabs | Top 50 tabs