» » »

Wild International Bass tabs (ver.1)

Artists:  A B C D E F G H I J K L M N O P Q R S T U V W X Y Z # 

Wild International Bass tabs (ver.1)

One Day As A Lion
Rating:
0/5 (0 votes)

Hard to play? Try these video lessons and learn fast.
                

Intro & Verse (Zack uses octaves on the keyboard, here they are on the bass)

G--3---3---3--3-------3---|
D-------------------------| 9x
A---3---3---3---3-1-4--3--|
E-------------------------|


Chorus A

G---------------------       G--------------------|
D-----------2h3------- 3x    D----------2h3-------| 1x
A--3h4-4-4------1-3-3-       A-3h4-4-4------3-----|
E---------------------       E--------------------|

Chorus B

G----------------------       G--------------------------|
D-----------2h3--------  5x   D-----------2h3------------| 1x
A--3h4-4-4------1-3-3--       A--3h4-4-4------3-3-3-3-3--|
E----------------------       E--------------------------|


Breakdown

G------------------------------       G--------------------------------|
D------------------------------  4x   D--------------------------------|  4x
A------------------------------       A--------------------------------|
E--6-6-6-6-4h6--4h6-6-7-6-4h6--       E--4h6-6-7-6-4h6--4h6-6-7-6-4h6--|

Chorus & Outro

G----------------------|
D-----------2h3--------| 4x
A--3h4-4-4------1-3-3--|
E----------------------|


Key

h = Hammer on
            
Hard to play? Try these video lessons and learn fast. | Correct




comments powered by Disqus
↑ Back to top | Tablatures and chords are parodies/interpretations of the original songs. You may use it for private study, scholarship, research or language learning purposes only