» » »

One Day As A Lion Tabs (ver.1)

Artists:  A B C D E F G H I J K L M N O P Q R S T U V W X Y Z # 

One Day As A Lion Tabs (ver.1)

One Day As A Lion
Rating:
5/5 (3 votes)

Hard to play? Try these video lessons and learn fast.
                -------------------------------------------------------------------------------
-------------------------------------------------------------------------------

Tuning: Drop D

Intro/Verse

Gtr 1  (0:09 - 0:55)

Riff1
e|--13-13--13-13--13-13--13-13--|--13-13--13-13--13-13--13-13-14-14--|
B|------------------------------|------------------------------------|
G|------------------------------|------------------------------------|
D|------------------------------|------------------------------------| 4x
A|------------------------------|------------------------------------|
D|------------------------------|------------------------------------|

Riff2
e|--11-11--11-11--11-11--11-11--|--11-11--11-11--11-11--11-11-12-12--|
B|------------------------------|------------------------------------|
G|------------------------------|------------------------------------|
D|------------------------------|------------------------------------| 6x
A|------------------------------|------------------------------------|
D|------------------------------|------------------------------------|


Gtr 2  (0:00 - 0:27)

e|------------------------------|------------------------------------|
B|------------------------------|------------------------------------|
G|------------------------------|------------------------------------|
D|------------------------------|------------------------------------|
A|------------------------------|------------------------------------|
D|------------------------------|------------------------------------|


Gtr 2  (0:28 - 1:02)

 This comes right at the beginning of each Gtr 1 riff, and the change up is there too. I
use Distortion, and a Whammy set to harmonize 2 octaves down.

Riff1a/b
e|-------------------|         e|---------------|
B|-------------------|         B|---------------|
G|------8------------|         G|---------8-----|
D|------8------------|   and   D|---------8-----|
A|------6------------|         A|-----(4)-6-----|
D|-------------------|         D|---------------|

This is that weird synth sweep. The best way I can think of to emulate this is sliding
Eb5 with a little delay and Wah Wah. The wah should not have a high tone, but needs a
sweep sound. Dunlop is the best bet. No Whammy either, but a phaser could do the trick. 
don’t have a phaser so I couldn’t tell you.

Riff2
e|-----------|
B|----11/----|
G|----8 /----|
D|-----------|
A|-----------|
D|-----------|


Gtr 1 (0:56 - 1:04)

Riff1
e|--13-13--13-13--13-13--13-13--|--13-13--13-13--13-13--13-13-14-14--|
B|------------------------------|------------------------------------|
G|------------------------------|------------------------------------|
D|------------------------------|------------------------------------| 2x
A|------------------------------|------------------------------------|
D|------------------------------|------------------------------------|


Chorus

Gtr 1 (1:09 - 1:46)

Riff3
e|--13-13--13-13--13-13--13-13-14-14-|--13-13--13-13--13-13--13-13-12-12--|
B|-----------------------------------|------------------------------------|
G|-----------------------------------|------------------------------------|
D|-----------------------------------|------------------------------------|1x
A|-----------------------------------|------------------------------------|
D|-----------------------------------|------------------------------------|

Riff4
e|--13-13--13-13--13-13--13-13-14-14-|--13-13--13-13--13-13--13-13-14-14--|
B|-----------------------------------|------------------------------------|
G|-----------------------------------|------------------------------------|
D|-----------------------------------|------------------------------------|1x
A|-----------------------------------|------------------------------------|
D|-----------------------------------|------------------------------------|

Riff3
e|--13-13--13-13--13-13--13-13-14-14-|--13-13--13-13--13-13--13-13-12-12--|
B|-----------------------------------|------------------------------------|
G|-----------------------------------|------------------------------------|
D|-----------------------------------|------------------------------------|5x
A|-----------------------------------|------------------------------------|
D|-----------------------------------|------------------------------------|

Gtr 2  (1:04)

This is for that weird transition that holds out. Maybe try adding overdrive on top of
distortion, or Swell into the chord after you pick it with the volume knob or pedal.
Style!

Riff3
e|---------------|
B|---------------|
G|-----8---------|
D|-----8---------| 1x
A|-----6---------|
D|-----------15\-|

Gtr 2 (1:09- 1:46)

[x] - is totally optional. No need for a whammy. Just Distortion. Its very hard to hear
these note, but they are all there. During this riff It seems like gtr 3 is doing the
for gtr 2 also, but tabbing that is a little overboard.

Riff4
e|--------------------------|------------------------|
B|--------------------------|------------------------|
G|--------------------------|------------------------|
D|--------------------------|------------------------|
A|--------------------------|------------------------|
D|--3-5-5-6--3-3-5-6-8-6-5--|--3-5-5-6--3-3-5-5-6-1--|

e|---------------------------|------------------------|
B|---------------------------|------------------------|
G|---------------------------|------------------------|
D|---------------------------|------------------------|
A|---------------------------|------------------------|
D|--3-5-5-6--3-3-5-8-6-5-[3]-|--3-5-5-6--3-3-5-5-6-8--|

e|--------------------------|------------------------|
B|--------------------------|------------------------|
G|--------------------------|------------------------|
D|--------------------------|------------------------|
A|--------------------------|------------------------|
D|--3-5-5-6--3-3-5-6-8-6-5--|--3-5-5-6--3-3-5-5-6-1--|

e|---------------------------|------------------------|
B|---------------------------|------------------------|
G|---------------------------|------------------------|
D|---------------------------|------------------------|
A|---------------------------|------------------------|
D|--3-5-5-6--3-3-5-8-6-5-[3]-|--3-5-5-6--3-3-5-5-6-8--|

This is that weird sweep right at the end of riff4

Riff2
e|-----------|
B|----11/----|
G|----8 /----|
D|-----------|
A|-----------|
D|-----------|

Verse

*Gtr 1*  (1:50 - 3:00)

Riff1
e|--13-13--13-13--13-13--13-13--|--13-13--13-13--13-13--13-13-14-14--|
B|------------------------------|------------------------------------|
G|------------------------------|------------------------------------|
D|------------------------------|------------------------------------| 2x
A|------------------------------|------------------------------------|
D|------------------------------|------------------------------------|

Riff2
e|--11-11--11-11--11-11--11-11--|--11-11--11-11--11-11--11-11-12-12--|
B|------------------------------|------------------------------------|
G|------------------------------|------------------------------------|
D|------------------------------|------------------------------------| 4x
A|------------------------------|------------------------------------|
D|------------------------------|------------------------------------|


Chorus

Riff3
e|--13-13--13-13--13-13--13-13-14-14-|--13-13--13-13--13-13--13-13-12-12--|
B|-----------------------------------|------------------------------------|
G|-----------------------------------|------------------------------------|
D|-----------------------------------|------------------------------------|1x
A|-----------------------------------|------------------------------------|
D|-----------------------------------|------------------------------------|

Riff4
e|--13-13--13-13--13-13--13-13-14-14-|--13-13--13-13--13-13--13-13-14-14--|
B|-----------------------------------|------------------------------------|
G|-----------------------------------|------------------------------------|
D|-----------------------------------|------------------------------------|1x
A|-----------------------------------|------------------------------------|
D|-----------------------------------|------------------------------------|

Riff3
e|--13-13--13-13--13-13--13-13-14-14-|--13-13--13-13--13-13--13-13-12-12--|
B|-----------------------------------|------------------------------------|
G|-----------------------------------|------------------------------------|
D|-----------------------------------|------------------------------------|6x
A|-----------------------------------|------------------------------------|
D|-----------------------------------|------------------------------------|

*Gtr2*  (2:00 - 3:05)

This comes right at the beginning of each Gtr 1 riff, and the change up is there too. I
use Distortion, and a Whammy set to harmonize 2 octaves down.

Riff1a/b
e|-------------------|         e|---------------|
B|-------------------|         B|---------------|
G|------8------------|         G|---------8-----|
D|------8------------|   and   D|---------8-----|
A|------6------------|         A|-----(4)-6-----|
D|-------------------|         D|---------------|

[x] - is totally optional. No need for a whammy. Just Distortion. Its very hard to hear
these note, but they are all there. During this riff It seems like gtr 3 is doing the
for gtr 2 also, but tabbing that is a little overboard.

Riff4
e|--------------------------|------------------------|
B|--------------------------|------------------------|
G|--------------------------|------------------------|
D|--------------------------|------------------------|
A|--------------------------|------------------------|
D|--3-5-5-6--3-3-5-6-8-6-5--|--3-5-5-6--3-3-5-5-6-1--|

e|---------------------------|------------------------|
B|---------------------------|------------------------|
G|---------------------------|------------------------|
D|---------------------------|------------------------|
A|---------------------------|------------------------|
D|--3-5-5-6--3-3-5-8-6-5-[3]-|--3-5-5-6--3-3-5-5-6-8--|

e|--------------------------|------------------------|
B|--------------------------|------------------------|
G|--------------------------|------------------------|
D|--------------------------|------------------------|
A|--------------------------|------------------------|
D|--3-5-5-6--3-3-5-6-8-6-5--|--3-5-5-6--3-3-5-5-6-1--|

e|---------------------------|------------------------|
B|---------------------------|------------------------|
G|---------------------------|------------------------|
D|---------------------------|------------------------|
A|---------------------------|------------------------|
D|--3-5-5-6--3-3-5-8-6-5-[3]-|--3-5-5-6--3-3-5-5-6-8--|

This is that weird sweep right at the end and beginning of riff4

Riff2

e|-----------|
B|----11/----|
G|----8 /----|
D|-----------|
A|-----------|
D|-----------|

This is that dissonant chord that’s held. It sounds really really cool cuz the notes
each other out and then it makes a pulsating sound or that’s just because I am transcribing
on an acoustic.

Riff2
e|-----------|
B|-----------|
G|-----------|
D|----0------|
A|----4------|
D|-----------|

Outro

Gtr 1  (3:05 - end)

Volume swell into that first +11.

e|--+11-----11-13-14-13--13-16-14--13-14-13-11-----|
B|-------11------------------------------------11--|
G|-------------------------------------------------|
D|-------------------------------------------------|
A|-------------------------------------------------|
D|-------------------------------------------------|

End on this

e|-----13----|
B|-----------|
G|-----------|
D|-----------|
A|-----------|
D|-----------|

Gtr2 (3:05 - End)

Distortion and Whammy set 2 Oct down.

e|-------------------|----------------|-------------------|-------------|
B|-------------------|----------------|-------------------|-------------|
G|-----8-8-8--8-8----|----------------|-----8-8-8--8-8----|--6-6-6-6-6--|
D|-----8-8-8--8-8----|----------------|-----8-8-8--8-8----|--6-6-6-6-6--|
A|-----6-6-6--6-6----|----------------|-----6-6-6--6-6----|--4-4-4-4-4--|
D|-------------------|----------------|-------------------|-------------|
            
Hard to play? Try these video lessons and learn fast. | Correct




comments powered by Disqus
↑ Back to top | Tablatures and chords are parodies/interpretations of the original songs. You may use it for private study, scholarship, research or language learning purposes only