» » »

Onda Vaselina, Te Quiero Tanto Tabs (ver.2)

Artists:  A B C D E F G H I J K L M N O P Q R S T U V W X Y Z # 

Te Quiero Tanto Tabs (ver.2)

Onda Vaselina Tabs
Rating:
0/5 (0 votes)
Te Quiero Tanto lessons Tabs too difficult? Try these video lessons and learn fast
                en verdad esta cancion no me gusta para nada, solo trascribo el tab porque a las mujeres les gusta mucho esta cancion, pero la verda esta cancion no sirve...

Onda vaselina : pequeña traviesa

INTRO: (2X TIMES)
|-----3--3--3--0-2---2-0-2--0-0--0---0-0-0-0---0-0-0----------------|
|-----3--3--3--0-3---3-3-3--0-1--1---1-1-1-1---1-1-0----------------|
|-0---0--0--0--0-2---2-2-2--0-2--2---2-2-2-2---2-2-0----------------|
|-0---0--0--0--0-0---0-0-0--0-2--2---2-2-2-2---2-2-0----------------|
|-2---------------------------0--0-----0---0-----0------------------|
|-3-----------------------------------------------------------------|
VERSE 1:
|-----3---0-2---2-0-2--0-0--0---0-2---2-0-2-------3---0-2---2-0-2--0-0--0
|-----3---0-3---3-3-3--0-1--1---0-3---3-3-3-------3---0-3---3-3-3--0-1--1
|-0---0---0-2---2-2-2--0-2--2---0-2---2-2-2---0---0---0-2---2-2-2--0-2--2
|-0---0---0-0---0-0-0--0-2--2---0-0---0-0-0---0---0---0-0---0-0-0--0-2--2
|-2---2------------------0--0-----------------2---2------------------0--0
|-3-------------------------------------------3--------------------------

SI TAL VEZ,       PUDIERAS COMPRENDER,         QUE NO SE COMO EXPRESARME

|---0-2---2-0-2-------3---0-2---2-0-2--0-0--0---0-2---2-0-2-------0---0-2-|
|---0-3---3-3-3-------3---0-3---3-3-3--0-1--1---0-3---3-3-3---0---0---0-3-|
|---0-2---2-2-2---0---0---0-2---2-2-2--0-2--2---0-2---2-2-2---0---0---0-2-|
|---0-0---0-0-0---0---0---0-0---0-0-0--0-2--2---0-0---0-0-0---2---2---0-0-|
|-----------------2---2------------------0--0-----------------2---2-------|
|-----------------3-------------------------------------------0-----------|

BIEN             SI TAL VEZ,        PUDIERA HACERTE VER,     QUE NO HAY 
 
|--2-2--3-3--3---0-2---2-0-2-|
|--3-3--3-3--3---0-3---3-3-3-|
|--2-2--0-0--0---0-2---2-3-2-|
|--0-0--0-0--0---0-0---0-0-0-|
|---------2--2---------------|
|---------3--3---------------|

OTRA MUJER MEJOR QUE TU PARA MI

|-----3---0-2---2-0-2--0-0--0---0-2---2-0-2-------3---0-2---2-0-2--0-0—0|
|-----3---0-3---3-3-3--0-1--1---0-3---3-3-3-------3---0-3---3-3-3--0-1—1|
|-0---0---0-2---2-2-2--0-2--2---0-2---2-2-2---0---0---0-2---2-2-2--0-2—2|
|-0---0---0-0---0-0-0--0-2--2---0-0---0-0-0---0---0---0-0---0-0-0--0-2—2|
|-2---2------------------0--0-----------------2---2------------------0—0|
|-3-------------------------------------------3-------------------------|

SI TAL VEZ,       ME HARIAS MUY FELIZ,         SI TAL VEZ, ME LO PODRIAS

|---0-2---2-0-2-------3---0-2---2-0-2--0-0--0---0-2---2-0-2-------0---0-2-|
|---0-3---3-3-3-------3---0-3---3-3-3--0-1--1---0-3---3-3-3---0---0---0-3-|
|---0-2---2-2-2---0---0---0-2---2-2-2--0-2--2---0-2---2-2-2---0---0---0-2-|
|---0-0---0-0-0---0---0---0-0---0-0-0--0-2--2---0-0---0-0-0---2---2---0-0-|
|-----------------2---2------------------0--0-----------------2---2-------|
|-----------------3-------------------------------------------0-----------|

DECIR          SI TAL VEZ,        DETALLE A DETALLE,         PUDIERAS 

|--2-2--3-3--3---0-2---2-0-2-|
|--3-3--3-3--3---0-3---3-3-3-|
|--2-2--0-0--0---0-2---2-3-2-|
|--0-0--0-0--0---0-0---0-0-0-|
|---------2--2---------------|
|---------3--3---------------|
CONQUISTARME SERÍA TUYA      
CHORUS:
|-2---------3--0-2---2-2--0-0--0---0-0-0--0-3--3--3--3-3--3--3-3--3---0-0
|-3-----3---3--0-3---3-3--0-1--1---1-1-1--0-2--2--2--3-3--3--3-2--2---0-1
|-2-----0---0--0-2---2-2--0-2--2---2-2-2--0-3--3--3--0-0--0--0-3--3---0-2
|-0-----0---0--0-0---0-0--0-2--2---2-2-2--0-0--0-------0--0----0--0---0-2
|-------2---2---------------0--0-----0-----------------2--2-------------0
|-------3----------------------------------------------3--2--------------
TE QUIERO TANTO, TANTO, TANTO, TANTO, TANTO. CADA DIA UN POCO MAS

|--0--0-0-0----3--3--3-2--2--0-0--0--0-2--2--3-3--3--3-3-2--2--0-0-0--0—0|
|--1--1-1-1----3--3--3-3--3--0-1--1--0-3--3--3-3--3--3-3-3--3--0-0-1--1—1|
|--2--2-2-2----0--0--0-2--2--0-2--2--0-2--2--0-0--0--0-0-2--2--0-0-2--2—2|
|--2--2-2-2----0--0--0-0--0--0-2--2--0-0--0--0-0--0--0-0-0--0--0-0-2--2—2|
|--0--0---0----2--2------------0--0------------2--2----------------0--0—0|
|--------------3--3------------0--0------------3--3-----------------------|

         TE QUIERO TANTO, TANTO, TANTO, TAMTO AMOR QUE YA NO PUEDO MAS
 
-0-0---2--2--3-3--3--3-3-2--2--0-0-0--0--0-|
-1-1---3--3--3-3--3--3-3-3--3--0-0-1--1--1-|
-2-2---2--2--0-0--0--0-0-2--2--0-0-2--2--2-|
-2-2---0--0--0-0--0--0-0-0--0--0-0-2--2--2-|
-0-0-----------2--2----------------0--0--0-|
---------------3--3------------------------|

       QUE YA NO PUEDO MAS
            
Submit corrections

comments powered by Disqus
↑ Back to top | Onda Vaselina Tabs for Te Quiero Tanto. Lyrics for acoustic guitar and electric guitar. Tablatures and chords are parodies/interpretations of the original songs. You may use it for private study, scholarship, research or language learning purposes only