» » »

Omega, Gyongyhaju Lany Tabs (ver.1)

Artists:  A B C D E F G H I J K L M N O P Q R S T U V W X Y Z # 

Gyongyhaju Lany Tabs (ver.1)

Omega Tabs
 Rating:
3.7/5 (6 votes)
Gyongyhaju Lany lessons Tabs too difficult? Try these video lessons and learn fast
1
                For the solos I suggest playing with F minor pentatonic (optionally adding sixth and 
The middle guitar solo (which starts at 2:50) is originally played with octaves, but I 
that the guy with the beard played it with single notes in concert


So here comes the main theme:

E |---------------------------------------------------|
B |----13---13--------13------------------------------|
G |-----------------------15--13--15------------------|
D |---------------------------------------------------|
A |---------------------------------------------------|
E |---------------------------------------------------|


E |---------------------------------------------------|
B |---------------------------------------------------|
G |--------15--15--15---------15--13--12--13-----15---|
D |---15----------------------------------------------|
A |---------------------------------------------------|
E |---------------------------------------------------|

E |---------------------------------------------------|
B |----13---13--------13------------------------------|
G |-----------------------15--13--15------------------|
D |---------------------------------------------------|
A |---------------------------------------------------|
E |---------------------------------------------------|


E |---------------------------------------------------|
B |---------------------------------------------------|
G |--------15--15--15---------13---------------13--15-|
D |---15-----------------------------15---------------|
A |---------------------------------------------------|
E |---------------------------------------------------|

Play that twice and for the second time skip the last two notes.

Have fun!
            
Submit corrections

comments powered by Disqus
↑ Back to top | Omega Tabs for Gyongyhaju Lany. Lyrics for acoustic guitar and electric guitar. 1 Tablatures and chords are parodies/interpretations of the original songs. You may use it for private study, scholarship, research or language learning purposes only