» » »

Omd, Joan Of Arc Bass tabs (ver.1)

Artists:  A B C D E F G H I J K L M N O P Q R S T U V W X Y Z # 

Joan Of Arc Bass tabs (ver.1)

Omd Tabs
 Rating:
4.3/5 (6 votes)
Joan Of Arc lessons Tabs too difficult? Try these video lessons and learn fast
                omd-joan of arc

(0.45)

G-12-12-12-12-12-12-12-12-14-14-14-14-14-14-14-14-------------------------|
D-------------------------------------------------12-12-12-12-12-12-12-12-|
A-------------------------------------------------------------------------|
E-------------------------------------------------------------------------|

G-------------------------------------------------------------------------|
D-------------------------12-12-12-12-12-12-12-12-------------------------|
A-10-10-10-10-10-10-10-10-------------------------12-12-12-12-12-12-12-12-|
E-------------------------------------------------------------------------|

G------------------------------------------------|
D-12-12-12-12-12-12-12-12-12-12-12-12-12-------0-|
A----------------------------------------12-12---|
E------------------------------------------------|

(1.01)
G-------------------------------------------------|
D-12-12-12-12-12-12-12-12-12-12-12-12-12-12-12-12-|
A-------------------------------------------------|
E-------------------------------------------------|

G-------------------------------------------------|
D-------------------------------------------------|
A-10-10-10-10-10-10-10-10-12-12-12-12-------------|
E-------------------------------------10-10-10-10-|

G-------------------------------------------------|
D-12-12-12-12-12-12-12-12-12-12-12-12-12-12-12-12-|
A-------------------------------------------------|
E-------------------------------------------------|

G-------------------------------------------------|
D-------------------------------------------------|
A-10-10-10-10-10-10-10-10-12-12-12-12-------------|
E-------------------------------------10-10-10-10-|

(1.18)
G-------------------------------------------------------------------------|
D-------------------------------------------------------------------------|
A-10-10-10-10-10-10-10-10-12-12-12-12-12-12-12-12-------------------------|
E-------------------------------------------------10-10-10-10-10-10-10-10-|

G-------------------------------------------------------------------------|
D-------------------------------------------------------------------------|
A-10-10-10-10-10-10-10-10-------------------------12-12-12-12-12-12-12-12-|
E-------------------------10-10-10-10-10-10-10-10-------------------------|

G------------------------------------------------|
D-12-12-12-12-12-12-12-12-12-12-12-12-12-------0-|
A----------------------------------------12-12---|
E------------------------------------------------|

(1.35)
G-------------------------------------------------|
D-12-12-12-12-12-12-12-12-12-12-12-12-12-12-12-12-|
A-------------------------------------------------|
E-------------------------------------------------|

G-------------------------------------------------|
D-------------------------------------------------|
A-10-10-10-10-10-10-10-10-12-12-12-12-------------|
E-------------------------------------10-10-10-10-|

G-------------------------------------------------|
D-12-12-12-12-12-12-12-12-12-12-12-12-12-12-12-12-|
A-------------------------------------------------|
E-------------------------------------------------|

G-------------------------------------------------|
D-------------------------------------------------|
A-10-10-10-10-10-10-10-10-12-12-12-12-------------|
E-------------------------------------10-10-10-10-|

(1.52)
G-------------------------------------------------------------------------|
D-------------------------------------------------------------------------|
A-10-10-10-10-10-10-10-10-12-12-12-12-12-12-12-12-------------------------|
E-------------------------------------------------10-10-10-10-10-10-10-10-|

G-------------------------------------------------------------------------|
D-------------------------------------------------------------------------|
A-10-10-10-10-10-10-10-10-------------------------12-12-12-12-12-12-12-12-|
E-------------------------10-10-10-10-10-10-10-10-------------------------|

G------------------------------------------------|
D-12-12-12-12-12-12-12-12-12-12-12-12-12-12-12-0-|
A------------------------------------------------|
E------------------------------------------------|

(2.10)
G--------|
D-0------|
A--------|
E--------|


(2.25)
G-------------------------------------------------|
D-12-12-12-12-12-12-12-12-12-12-12-12-12-12-12-12-|
A-------------------------------------------------|
E-------------------------------------------------|

G-------------------------------------------------|
D-------------------------------------------------|
A-10-10-10-10-10-10-10-10-12-12-12-12-------------|
E-------------------------------------10-10-10-10-|

G-------------------------------------------------|
D-12-12-12-12-12-12-12-12-12-12-12-12-12-12-12-12-|
A-------------------------------------------------|
E-------------------------------------------------|

G-------------------------------------------------|
D-------------------------------------------------|
A-10-10-10-10-10-10-10-10-12-12-12-12-------------|
E-------------------------------------10-10-10-10-|

(2.42)
G-------------------------------------------------------------------------|
D-------------------------------------------------------------------------|
A-10-10-10-10-10-10-10-10-12-12-12-12-12-12-12-12-------------------------|
E-------------------------------------------------10-10-10-10-10-10-10-10-|

G-------------------------------------------------------------------------|
D-------------------------------------------------------------------------|
A-10-10-10-10-10-10-10-10-------------------------12-12-12-12-12-12-12-12-|
E-------------------------10-10-10-10-10-10-10-10-------------------------|

G-------------------------------------------------|
D-------------------------------------------------|
A-------------------------------------------------|
E-10-10-10-10-10-10-10-10-10-10-10-10-10-10-10-10-|

(2.59)
G-------------------------------------------------------------------------|
D-------------------------------------------------------------------------|
A-------------------------------------------------------------------------|
E-10-10-10-10-10-10-10-10-5--5--5--5--5--5--5--5--10-10-10-10-10-10-10-10-|
            
Submit corrections

comments powered by Disqus
↑ Back to top | Omd Bass for Joan Of Arc. Lyrics for acoustic guitar and electric guitar. Tablatures and chords are parodies/interpretations of the original songs. You may use it for private study, scholarship, research or language learning purposes only