>
 >
Viernes

Viernes Guitar Tabs

Omar A Rodriguez-lopez - Viernes chords, tabs, tablatures, lyrics

Guitar lessons | Add/correct | Request | Top 50 tabs Artists:  A B C D E F G H I J K L M N O P Q R S T U V W X Y Z 0-9

Viernes Guitar Tabs – Omar A Rodriguez-lopez

CD, Sheet music, Poster

Do you like Viernes? Share with your friends now
Tabs
Verse

C

e-3/5/3-----------|
B-------5/3-------|
G------------4----|
D-----------------|
A-3---------------|
E-----------------|

e-----------------|
B-3/5/3-----------|
G-------4---------|
D-----------------|
A-----------------|
E-----------------|

Am

e-3/5/3-----------|
B-------5/3-------|
G------------4----|
D-----------------|
A-0---------------|
E-----------------|

e-----------------|
B-3/5/3-----------|
G-------4---------|
D-----------------|
A-----------------|
E-----------------|


Chorus (I'm not really sure about this part)

F         Dm

e-3-3-3---5-5-5------|
B-3-3-3---6---6------|
G--------(7)-(7)-----| (I'm not 100% sure about this part!)
D--------------------|
A--------------------|
E--------------------|

The part where Ximena goes Hmm Hmmm Hmm Hmmm you can do this just for fun


e-----------------|
B-1-1/3-1/5-------|
G-----------------|
D-----------------|
A-----------------|
E-----------------|

Outro

C - D - D# - F

e-3-5-6-8-11-10-11-13-11-10-8-10-6----|
B-------------------------------------|
G-------------------------------------| X 2
D-------------------------------------|
A-------------------------------------|
E-------------------------------------|

Then Omar plays C and Am really softly.
After that they play the Chorus and then the bass keeps playing C and A for a little bit.





Comments


Popular Omar A Rodriguez-lopez tabs & chords
Rapid Fire Tollbooth Bass Tabs
Zim Bass Tabs
Desarraigo Tabs
Half Kleptos Tabs
Jueves Tabs
Lick The Tilting Poppies Tabs
Luxury Of Infancy Tabs
Puny Humans 1 Tabs
Que Disse Pessoa Tabs
Un Buitre Amable Me Pico Poincare Tabs


Song lyrics



↑ Back to top | Tablatures and chords are parodies/interpretations of the original songs. You may use it for private study, scholarship, research or language learning purposes only
© 2014 AZChords.com Contact us | Privacy policy | DMCA | Add/correct tabs | Request tabs | Top 50 tabs