» » »

Omar A Rodriguez-lopez, Un Buitre Amable Me Pico Poincare Tabs (ver.1)

Artists:  A B C D E F G H I J K L M N O P Q R S T U V W X Y Z # 

Un Buitre Amable Me Pico Poincare Tabs (ver.1)

Omar A Rodriguez-lopez Tabs
Rating:
0/5 (0 votes)
Un Buitre Amable Me Pico Poincare lessons Tabs too difficult? Try these video lessons and learn fast
                Omar Rodriguez-Lopez - Un Buitre Amable Me Pico / Poincare
Solar Gambling (2009)


Pretty sure this is 45 separate guitar parts layered together, so I gave them each a 
half-assed shot. Start with one part, and then add one at a time until you're playing all 
parts simultaneously, which is the properly badassed thing to do.

Standard tuning

  Gtr I
|----------------------------------------------------|
|----------------------------------------------------|
|----------------------------------------------------|
|---2-------2---2-0-0-0h2---2-------2---2-0-0-0h2----|
|----------------------------------------------------|
|-0---0-0-0---0-----------0---0-0-0---0--------------|


  Gtr II
|-------------------------|
|-------------------------|
|-------------------------|
|----9-10-9----10-9-------| x 16 or so (this is only in the opening, everything else 
repeats throughout song)
|-10--------10------10----|
|-------------------------|

  Gtr IX
|----------------------------------------------|
|----------------------------------------------|
|----------------------------------------------|
|----12----12-14-12-------12-------------12----|
|-14----14----------14-12----14-12-12-14-------|
|----------------------------------------------|

  Gtr XIV

|-19--17--14-15--12----|
|----------------------|
|----------------------|
|----------------------|
|----------------------|
|----------------------|

  Gtr XVIII
|---------------------|
|---------------------|
|---------------------|
|-17--16--12-14--9----|
|---------------------|
|---------------------|

  Gtr L
|----15----15-17-15-------15-------------15----|
|-17----17----------17-15----17-15-15-17-------|
|----------------------------------------------|
|----------------------------------------------|
|----------------------------------------------|
|----------------------------------------------|


Closing chorus:

|-----------------------------------------------------------------------------|
|----------------10----------------------------------10--12---10--------------|
|-9-11-12--11-12-----12-11-9----11----9-11-12--11-12--------9----9-12-11-9----|
|----------------------------12-----------------------------------------------|
|-----------------------------------------------------------------------------|
|-----------------------------------------------------------------------------|


The chords in Poincare sound like: G, Gbm, D, Em, Gbm or something close, add any 
suggestions and I will be sure to update this within the next 50-70 years.
            

comments powered by Disqus
↑ Back to top | Omar A Rodriguez-lopez Tabs for Un Buitre Amable Me Pico Poincare. Lyrics for acoustic guitar and electric guitar. Tablatures and chords are parodies/interpretations of the original songs. You may use it for private study, scholarship, research or language learning purposes only