» » »

Omar A Rodriguez-lopez, Rapid Fire Tollbooth Bass tabs (ver.1)

Artists:  A B C D E F G H I J K L M N O P Q R S T U V W X Y Z # 

Rapid Fire Tollbooth Bass tabs (ver.1)

Omar A Rodriguez-lopez Tabs
 Rating:
3.8/5 (5 votes)
Rapid Fire Tollbooth lessons Tabs too difficult? Try these video lessons and learn fast
1
                ----------------------------------------------------------------------------
----------------------------------------------------------------------------

Tuning: Standard 


Intro/verse
G|--------------------------------------|
D|--------------------------------------|
A|--2---4-4---2---4r--------------------|
E|--------------------------------------|

G|--------------------------------------|
D|--------2~----------------------------|
A|--2---4-------------------------------|
E|------------2---4---------------------|



First Chorus
G|-------------------------------------------|
D|----------------------------------2~-------|
A|--4-4-4-4-4r----4-4-4-4r--4-4-4-4----------|
E|--------------------------------------2---4|

G|------------------------------------------------------------------|
D|----------------------------------2~----2-------------------------|
A|--4-4-4-4-4r----4-4-4-4r--4-4-4-4--------432-----------2--3-------|
E|----------------------------------------------3---4---------------|



Second Verse
G|--------------------------------------|
D|--------------------------------------|
A|--2---4-4---2---4r--------------------|
E|--------------------------------------|

G|--------------------------------------|
D|--------2~----------------------------|
A|--2---4-------------------------------|
E|------------2---4---------------------|



Second Chorus
G|-------------------------------------------|
D|----------------------------------2~-------|
A|--4-4-4-4-4r----4-4-4-4r--4-4-4-4----------|
E|--------------------------------------2---4|

G|-------------------------------------------|
D|----------------------------------2~-------|
A|--4-4-4-4-4r----4-4-4-4r--4-4-4-4----------|
E|--------------------------------------2---4|

G|------------------------------------------------------------------|
D|----------------------------------2~----2-------------------------|
A|--4-4-4-4-4r----4-4-4-4r--4-4-4-4--------432-----------2--3-------|
E|----------------------------------------------3---4---------------|


Third Verse/Solos
G|--------------------------------------|
D|--------------------------------------|
A|--2---4-4---2---4r--------------------|
E|--------------------------------------|

G|--------------------------------------|
D|--------2~----------------------------|
A|--2---4-------------------------------|
E|------------2---4---------------------|



Third Chorus
G|-------------------------------------------|
D|----------------------------------2~-------|
A|--4-4-4-4-4r----4-4-4-4r--4-4-4-4----------|
E|--------------------------------------2---4|

G|-------------------------------------------|
D|----------------------------------2~-------|
A|--4-4-4-4-4r----4-4-4-4r--4-4-4-4----------|
E|--------------------------------------2---4|

G|------------------------------------------------------------------|
D|----------------------------------2~----2-------------------------|
A|--4-4-4-4-4r----4-4-4-4r--4-4-4-4--------432-----------2--3-------|
E|----------------------------------------------3---4---------------|

Outro
G|---------------|
D|---------------|
A|--4-4-4-4-4r---|
E|---------------|

This was my first time making a tab, so... if there are any problems, let me know and i'll correct it.

Questions or comments?
or

| r  rest
| /  slide up
| \  slide down
| h  hammer-on
| p  pull-off
| ~  vibrato
| +  harmonic
| x  Mute note
============================================================================
            
Submit corrections

comments powered by Disqus
↑ Back to top | Omar A Rodriguez-lopez Bass for Rapid Fire Tollbooth. Lyrics for acoustic guitar and electric guitar. 1 Tablatures and chords are parodies/interpretations of the original songs. You may use it for private study, scholarship, research or language learning purposes only