» » »

Omar A Rodriguez-lopez, Luxury Of Infancy Tabs (ver.1)

Artists:  A B C D E F G H I J K L M N O P Q R S T U V W X Y Z # 

Luxury Of Infancy Tabs (ver.1)

Omar A Rodriguez-lopez Tabs
 Rating:
4.2/5 (5 votes)
Luxury Of Infancy lessons Tabs too difficult? Try these video lessons and learn fast
1
                
Omar Rodriguez-Lopez - Luxury of Infancy

Firstly, check out my other tabs aswell, thanks!

This is for my friend Daryl(one of his favourite pieces)! But others can use it too!lol a pretty awesome song!

Tablature Legend:
/    - Slide up
\    - Slide down
~    - Vibrato
p    - Pull-off
h    - Hammer-on
?(?) ā€“ Bend (to what is in the brackets)
x    - Muted note
*    - Brief Note

e|----------------------------------------------------------|
B|-(15)(13)-11~-\---9-11(12)(11)-9~-------------------------|
G|----*-----------------------------10\---10-12-13-12-10\---|
D|----------------------------------------------------------|
A|----------------------------------------------------------|
E|----------------------------------------------------------|
*(Pre-Bend the 1st note & then release it)

e|-------------------------------------------------------------------------|
B|------------------------------------14p13p11-----9-11-9----9/11----------|
G|-5h8p5h8p5h8p5h8/10-8\5/8~-8/10~-\-----------10~--------10------10-10~\--|
D|-------------------------------------------------------------------------|
A|-------------------------------------------------------------------------|
E|-------------------------------------------------------------------------|

e|-----------------------------------11-13-15(16)(15)-15(16)(15)-15(16)(15)-15(16)(15)-|
B|-------------------8-6-x-6~-/13-14---------------------------------------------------|
G|----10-6-5-3\1/3/5-------------------------------------------------------------------|
D|-------------------------------------------------------------------------------------|
A|-8-----------------------------------------------------------------------------------|
E|-------------------------------------------------------------------------------------|

e|-15(16)(15)-15(16)(15)-15(16)(15)-13------|
B|-------------------------------------13~--|
G|------------------------------------------|
D|------------------------------------------|
A|------------------------------------------|
E|------------------------------------------|

e|-16p15p13-15-16ā€”16p15p13-15h16-15h16-16p15-16p15-16p15p13-13h15-13h15-|
B|----------------------------------------------------------------------|
G|----------------------------------------------------------------------|
D|----------------------------------------------------------------------|
A|----------------------------------------------------------------------|
E|----------------------------------------------------------------------|

e|-13h15h16-13h15h16-16p15p13-15h16p13----15h16p13---------16h18----16h18--|
B|-------------------------------------13----------13~--18-------18--------|
G|-------------------------------------------------------------------------|
D|-------------------------------------------------------------------------|
A|-------------------------------------------------------------------------|
E|-------------------------------------------------------------------------|

e|-20p18p16-20p18p16-20p18p16-20p18p16-20p18p16-20p18p16---------------------|
B|-------------------------------------------------------18-18-16--18-18-16~-|
G|---------------------------------------------------------------------------|
D|---------------------------------------------------------------------------|
A|---------------------------------------------------------------------------|
E|---------------------------------------------------------------------------|

e|-------------------------------------------------------|
B|---------------------------------------------------13~-|
G|-------15-----15~-------------13-------------13-15-----|
D|-13h15-----15--------11h13-15-------11h13-15-----------|
A|------------------13-------------13--------------------|
E|-------------------------------------------------------|

e|-------------------------------------------------------------------------|
B|-9-11-9-9-13-9-9-11-9-9-13-9-9-11-9-9-13-9-9-11-9-9-11(12)--9------------|
G|--------------------------------------------------------------10--8-10---|
D|-------------------------------------------------------------------------|
A|-------------------------------------------------------------------------|
E|-------------------------------------------------------------------------|

e|-------------------------------------------------------------------------|
B|-9-11-9-9-13-9-9-11-9-9-13-9-9-11-9-9-13-9-9-11-9-9-11(12)--11-9-11(13)--|
G|-------------------------------------------------------------------------|
D|-------------------------------------------------------------------------|
A|-------------------------------------------------------------------------|
E|-------------------------------------------------------------------------|

e|------------------------------------------------------------------------|
B|-9-9-9-11(13)-11(12)-11-9--11(13)~--11p9----9\-9\-----------------------|
G|-----------------------------------------10---------6-5h6-5h6-----------|
D|---------------------------------------------------------------8-8--8---|
A|------------------------------------------------------------------------|
E|------------------------------------------------------------------------|

Then there are a various effects using delay & a pedal with Ring Mod (or an effect like 
& muted notes (Iā€™m just gonna tell ya to improvise!)
            
Submit corrections

comments powered by Disqus
↑ Back to top | Omar A Rodriguez-lopez Tabs for Luxury Of Infancy. Lyrics for acoustic guitar and electric guitar. 1 Tablatures and chords are parodies/interpretations of the original songs. You may use it for private study, scholarship, research or language learning purposes only