» » »

Omar A Rodriguez-lopez, Jacob Van Lennepkade Tabs (ver.1)

Artists:  A B C D E F G H I J K L M N O P Q R S T U V W X Y Z # 

Jacob Van Lennepkade Tabs (ver.1)

Omar A Rodriguez-lopez Tabs
 Rating:
4.2/5 (5 votes)
Jacob Van Lennepkade lessons Tabs too difficult? Try these video lessons and learn fast
                I will just show the parts here, that are played throughout the song, I won't tab the 
because they are freakin' long : ) but they are wonderful! The whole thing is based on the 
inside of an orange version! --> Jacob Van Lennepkade II

Main Riff
I will have two versions here, one is the original and the other is one octave up, which 
a little bit better and closer to the original. it actually is the trumpet's voice.

low version
with wah

e|-------------------------------------------------------------------------|
B|-------------------------------------------------------------------------|
G|---------------2---------------------------------------------------------|
D|--------------------5-3-2--3-5-3----------3-2-------5----3-2-------------|
A|-5----------------------------------------------4-5----------5-4---5-7-5-|
E|----3--6-5-6------------------------3-5-6--------------------------------|

e|-------------------------------------------------------------------------|
B|-------------------------------------------------------------------------|
G|-------------------------------------------------------------------------|
D|-------------2-----2-3---------------------------------------------------|
A|---------------5-4-------------------------------------------------------|
E|-6-5-3-5-6---------------------------------------------------------------|


slightly cooler version, if you have no wah and no full orchestra playing with you (^ ^):

e|---------------5---------------------------------------------------------|
B|--------------------8-6-5--6-8-6----------6-5-------8----6-5-------------|
G|-7----------------------------------------------6-7----------7-6---7-9-7-|
D|----5--8-7-8------------------------5-8-7--------------------------------|
A|-------------------------------------------------------------------------|
E|-------------------------------------------------------------------------|

e|-------------------------------------------------------------------------|
B|-------------5-----5-6---------------------------------------------------|
G|---------------7-6-------------------------------------------------------|
D|-8-7-5-7-8---------------------------------------------------------------|
A|-------------------------------------------------------------------------|
E|-------------------------------------------------------------------------|


Accompanisation (when he's not soloing ^ ^)
dots indicate 16ths
I'll show you two different lines, one is on the CD, the other I have seen him play live 
)

standard
  1 . & . 2 . & . 3 . & . 4 . & . 1 . & . 2 . & . 3 . & . 4 . & . 1 . ...
e|------------------------x------------------------------------------------|
B|------------------------x------------------------------------------------|
G|------------------------x------------------------------------------------|
D|------------------------x------------------------------------------------|
A|------------------------1------------------------------------------------|
E|3-----3-----1---3--------------------------------------------------------|


live (notes in brackets () are optional)
  1 . & . 2 . & . 3 . & . 4 . & . 1 . & . 2 . & . 3 . & . 4 . & . 1 . ...
e|-------------------------------------------------------------------------|
B|-------------------------------------------------------------------------|
G|-------------------------------------------------------------------------|
D|-------------------------------------------------------------------------|
A|------------------------1-----1------------------------------------------|
E|3-----3-----1---3------------------------------(1)-----(2)---------------|

last part

e|--------------------------|
B|----------6----------3----|
G|-------3----------3-------|
D|----5----------5----------| + lot's of delay and stuff : )
A|--------------------------|
E|--------------------------|

enjoy, hope everythings right so far : )
            
Submit corrections

comments powered by Disqus
↑ Back to top | Omar A Rodriguez-lopez Tabs for Jacob Van Lennepkade. Lyrics for acoustic guitar and electric guitar. Tablatures and chords are parodies/interpretations of the original songs. You may use it for private study, scholarship, research or language learning purposes only