» » »

Omar A Rodriguez-lopez, I Like Rock Tabs (ver.1)

Artists:  A B C D E F G H I J K L M N O P Q R S T U V W X Y Z # 

I Like Rock Tabs (ver.1)

Omar A Rodriguez-lopez Tabs
 Rating:
4/5 (4 votes)
I Like Rock lessons Tabs too difficult? Try these video lessons and learn fast
                Omar Rodriguez-Lopez - I Like Rock...
Old Money (2008)

Standard tuning
 4/4

Chorus:

  Gtr I
|--21--17--19----------21----------21--17--19----------21-----------|
|--------------20--19------15--18--------------20--19------15--18---|
|-------------------------------------------------------------------|
|-------------------------------------------------------------------| x 4
|-------------------------------------------------------------------|
|-------------------------------------------------------------------|

  Gtr 2
|-------------------------------------------------------------------------|
|----------19-18-17-----------15-15---------------------------------------|
|-14-15-16-----------14-15-16--------14-15-16-18-17-16-----------14-14----|
|-------------------------------------------------------14-15-16----------| x 4
|-------------------------------------------------------------------------|
|-------------------------------------------------------------------------|

Verse 1:

|-------------------------------------------------------------|
|-------------------------------------------------------------|
|-11------12-11-------9-10-11--------9-12-11-------9-12-11----|
|----9-12--------9-12----------11-12----------9-12------------| x 4
|-------------------------------------------------------------|
|-------------------------------------------------------------|

(No lyrics, just say random spanish things into a muffled vocoder, but make sure 
you mention tamales)


Break:

|----------------14-------------------------14----------------------|
|-------------------------------------------------------------------|
|-14-16-17-14-16----14-16-17-14-16-17-14-16----14-16-17-14-16-17----|
|-------------------------------------------------------------------|
|-------------------------------------------------------------------|
|-------------------------------------------------------------------|
 x 4 (96 if you want anyone within hearing range to torture-kill you)


Chorus + random wah-wankery in lower scale

Verse 2:

|-15---------------------------12---------------------|
|----14-12--14-15--14-12-14-15----12-11--12-14--------|
|-----------------------------------------------11----|
|-----------------------------------------------------| x 2
|-----------------------------------------------------|
|-----------------------------------------------------|


|-7--7--7/9--7-|
|-7--7--7/9--7-|
|-7--7--7/9--7-| ????? chords and delay spanking ?????
|-9--9--9/11-9-|
|--------------|
|--------------|

|----------------14-------------------------14----------------------|
|-------------------------------------------------------------------|
|-14-16-17-14-16----14-16-17-14-16-17-14-16----14-16-17-14-16-17----|
|-------------------------------------------------------------------| x 4
|-------------------------------------------------------------------|
|-------------------------------------------------------------------|


|-19-------------21-17-19----------------------|
|----17-------19----------19-17----17-18-19----|
|-------18-19-------------------19-------------|
|----------------------------------------------| x 8
|----------------------------------------------|
|----------------------------------------------|


|---------------------------------------------------------------|
|---------------------------------------------------------------|
|18--14--16---------18----------18--14--16---------18-----------|
|-----------17--16-----12--15--------------17--16------12--15---| 
|---------------------------------------------------------------| 
|---------------------------------------------------------------|
Repeat until end along w/ break riff (he plays both parts at the same time, as must you)
            
Submit corrections

comments powered by Disqus
↑ Back to top | Omar A Rodriguez-lopez Tabs for I Like Rock. Lyrics for acoustic guitar and electric guitar. Tablatures and chords are parodies/interpretations of the original songs. You may use it for private study, scholarship, research or language learning purposes only