» » »

Omar A Rodriguez-lopez, Domingo Tabs (ver.1)

Artists:  A B C D E F G H I J K L M N O P Q R S T U V W X Y Z # 

Domingo Tabs (ver.1)

Omar A Rodriguez-lopez Tabs
Rating:
0/5 (0 votes)
Domingo lessons Tabs too difficult? Try these video lessons and learn fast
                El Trío de Omar Rodriguez-Lopez
Ciencia de los Inútiles


e and B strings are never used.
Play each chord six times each.


Riff 1

G||---------|---------|---------|---------|| x2
D||----4----|----4----|----4----|----0----||
A||----5----|----7----|----5----|----2----||
E||----3----|----5----|----2----|----3----||


Riff 2

G||---------|----6----|----4----|----2----|| x2
D||----7----|----4----|----2----|----0----||
A||----5----|----5----|----0----|----2----||
E||----3----|---------|---------|---------||


Riff 3

G||---------|---------|---------|----6----| x2  ----6----||
D||----4----|----4----|----4----|----4----|     ----4----||
A||----5----|----5----|----5----|----2----|then ----2----||
E||----3----|----4----|----3----|---------|that ---------||


Order

Riff 1
Riff 2
Riff 1
Riff 2
Riff 3
Riff 1
Riff 2
Riff 3
            
Submit corrections

comments powered by Disqus
↑ Back to top | Omar A Rodriguez-lopez Tabs for Domingo. Lyrics for acoustic guitar and electric guitar. Tablatures and chords are parodies/interpretations of the original songs. You may use it for private study, scholarship, research or language learning purposes only