>
 >
War

War Guitar Tabs

Olympia - War chords, tabs, tablatures, lyrics

Guitar lessons | Add/correct | Request | Top 50 tabs Artists:  A B C D E F G H I J K L M N O P Q R S T U V W X Y Z 0-9

War Guitar Tabs – Olympia

CD, Sheet music, Poster

Do you like War? Share with your friends now
Tabs
Ok, this is obviously right because I WROTE THIS SONG!!! Not many people will look at 
but for anyone who interested in what we wrote, and you can't copy the idea either, we 
it copyrighted on a C.D.


Standard Tuning

Intro (go slow on last one)
--50403020---------------|
-------------------------|
-------------------------|
-------------------------|
-------------------------|
-------------------------|


Main Riff (repeat onto chorus)
----------x---------x---------x----------------------------|
----------x---------x---------x----------------------------|
----------x---------x---------x----------------------------|
--7-7-7-7-x-6-6-6-6-x-5-5-5-5-x-4-4-4-4-4------------------|
--7-7-7-7-x-6-6-6-6-x-5-5-5-5-x-4-4-4-4-4------------------|
--5-5-5-5-x-4-4-4-4-x-3-3-3-3-x-2-2-2-2-2------------------|

Chorus (X2)

-----x-----x-----x-----------x-----x-----x-------------|
-----x-----x-----x-----------x-----x-----x-------------|
-----x-----x-----x-----------x-----x-----x-------------|
-4-4-x-5-5-x-6-6-x-7-7-7-4-4-x-5-5-x-6-6-x-7-7-9/------|
-4-4-x-5-5-x-6-6-x-7-7-7-4-4-x-5-5-x-6-6-x-7-7-9/------|
-2-2-x-3-3-x-4-4-x-5-5-5-2-2-x-3-3-x-4-4-x-5-5-7/------|

Pre-Solo (during bass)

-------------------------------------------------------|
-------------------------------------------------------|
-------------------------------------------------------|
--------------------------(muted)----------------------|
------------------------18/5---------------------------|
--x-x--x--xxxx---x-x-----------------------------------|

Solo (muted)

-------------------------------------------------------|
-------------------------------------------------------|
-------------------------------------------------------|
-------------------------------------------------------| Repeat
-----7-----8----7----8----7-----8--8/18----------------|
--5-----5----5-----5----5----5-------------------------|


Pre-Outro
(muted)
-------------------------------------------------------|
-------------------------------------------------------|
-------------------------------------------------------|
-------------------------------------------------------|
-------------------------------------------------------|
--5-5-5-5-5-5-5-5-5-5----------------------------------|


Outro

-------------------------------------------------------|
-------------------------------------------------------|
-------------------------------------------------------|
-------------------------------------------------------|  Repeat
-------------------------------------------------------|
--5-5-5-3-3-3-2-2-2-1-1-0------------------------------|


goes on to...

-------------------------------------------------------|
-------------------------------------------------------|
-------------------------------------------------------|
--7-7-7-5-5-5-4-4-4-3-3-2------------------------------|
--7-7-7-5-5-5-4-4-4-3-3-2------------------------------|
 -5-5-5-3-3-3-2-2-2-1-1-0------------------------------|


Finally

-------------------------------------------------------|
-------------------------------------------------------|
-------------------------------------------------------|
-7--7--7--5--5--5--4--4--4--3--3--2----7-----7h9----7--|
-7--7--7--5--5--5--4--4--4--3--3--2----7--7h9---7h9-7--|
-5--5--5--3--3--3--2--2--2--1--1--0----5------------5--|


That's the whole song, you have to listen to it to read it better, but I wrote it, so 
OBVIOUSLY right. If I'M not right, who is?





Comments


Popular Olympia tabs & chords
45 Bass Tabs
120 Hours Tabs
45 Tabs
Insomniac Tabs
Talkin Crap Tabs


Song lyrics



↑ Back to top | Tablatures and chords are parodies/interpretations of the original songs. You may use it for private study, scholarship, research or language learning purposes only
© 2014 AZChords.com Contact us | Privacy policy | DMCA | Add/correct tabs | Request tabs | Top 50 tabs