» » »

Olympia, 45 Tabs (ver.1)

Artists:  A B C D E F G H I J K L M N O P Q R S T U V W X Y Z # 

45 Tabs (ver.1)

Olympia Tabs
Rating:
0/5 (0 votes)
45 lessons Tabs too difficult? Try these video lessons and learn fast
                Ok, I wrote this song too, but my account is being weird and it wouldn't let me log in, 
I'm leaving my name anoynomous, but it's really Coloradojoe jr. Anyways, this is an easy song...
Standard Tuning

Main Riff/ Chorus/ Outro (pm on main riff, regular on chorus)
--------------------------------------------------------|
--------------------------------------------------------|
--------------------------------------------------------|
---1010--8-8--7-7--6-6-5-5------------------------------|
---1010--8-8--7-7--6-6-5-5------------------------------|
----8-8--6-6--5-5--4-4-3-3------------------------------|


On outro, hold the notes out

Very End

--------------------------------------------|
--------------------------------------------|
--------------------------------------------|
---10--------(hold out)---------------------|
---10---------------------------------------|
----8---------------------------------------|


Well that's it, it' definately write because I wrote it.
            

comments powered by Disqus
↑ Back to top | Olympia Tabs for 45. Lyrics for acoustic guitar and electric guitar. Tablatures and chords are parodies/interpretations of the original songs. You may use it for private study, scholarship, research or language learning purposes only