» » »

Please Dont Let Me Go Bass tabs (ver.1)

Artists:  A B C D E F G H I J K L M N O P Q R S T U V W X Y Z # 

Please Dont Let Me Go Bass tabs (ver.1)

Olly Murs
Rating:
0/5 (0 votes)

Hard to play? Try these video lessons and learn fast.
                Olly Murs - please dont let me go


Intro/Verse

1st part

G|------------------------------------------------------------|
D|------------------------------------------------------------|
A|----------------------------3-5-6--5-6---6h10-8--8-8--8-10--|
E|-6-3---4-6-3---6-7-8--5-7-8---------------------------------|


G|----------------------------------------------------------|
D|----------------------------------------------------------|
A|--------------------------3-5-6--5-6---6h10-8--8-8----10--|
E|-3---4-6-3---6-7-8--5-7-8---------------------------------|


G|----------------------------------------------------------|
D|----------------------------------------------------------|
A|---------------------------3-5-6--5-6---7-8---8---8-------|
E|-3---4-6-3---10-9-8--5-7-8--------------------------------|

Chorus


G|-------------------------------------------------------------------------|
D|-------------------------------------------------------------------------|
A|-------------------------------------------------------5-6---6-6-5---5---|
E|-6--6/18-18-18-18\-13--13-13-13-13-11-10-8--8-8-8-6-8--------------8-----|


G|-------------------------------------------------------------------------|
D|-------------------------------------------------------------------------|
A|-----------------------------------------------------5-6---6-6-5---5-----|
E|-6--6-6-6-8-10-11-13--13-13-13-13-11-10-8--8-8-8-6-8-------------8-------|


Please dont let me go....

G|-------------------------------------------------------------------------|
D|-------------------------------------------------------------------------|
A|-----------------------------------------------------5-6---6-6-5---------|
E|-6--6-6-6-8-10-11-13--13-13-13-13-11-10-8--8-8-8-6-8-------------8-6~----|

2nd verse

G|-------------------------------------------------------------|
D|-------------------------------------------------------------|
A|------------------------------3-5-6--5-6---6h10-8---8--8-10--|
E|-15\3---4-6-3---6-7-8--5-7-8---------------------------------|

G|------------------------------------------------------------------|
D|------------------------------------------------------------------|
A|------------------------------3-5-6--5-6---6h10-8--8-8-8-8--8-10--|
E|-3---4-6-3---6-7h9p7-8--5-7-8-------------------------------------|


G|----------------------------------------------------------|
D|----------------------------------------------------------|
A|---------------------------3-5-6--5-6---7-8-8-8-8-8---8---|
E|-3---4-6-3---10-9-8--5-7-8--------------------------------|

2nd chorus....

G|-------------------------------------------------------------------------|
D|-------------------------------------------------------------------------|
A|-------------------------------10-12-13---------------5-6---6-6-5---5----|
E|-6--6-6-6-8-10-11-13--13-13-13-----------8--8-8-8-6-8-------------8------|

G|-------------------------------------------------------------------------|
D|-------------------------------------------------------------------------|
A|-----------------------------------------------------5-6---6-6-5---5-----|
E|-6--6-6-6-8-10-11-13--13-13-13-13-11-10-8--8-8-8-6-8-------------8-------|

Please dont let me go....

G|----------------------------------------------------------------------------|
D|----------------------------------------------------------------------------|
A|------------------------------------------------------------5-6---6-6-5---5-|
E|-6/18--18-18-18-17-15-18-13--13-13-13-13-11-10-8--8-8-8-6-8-------------8---|

Interlude....
                                                          1... 2... 3...
G|----------------------------------------------------|--------------------------|
D|----------------------------------------------------|--------------------------|
A|----------------------------------------------------|--------------------------|
E|-6----6-1----1-8----8-6----6-3----3-1----1-8----11--|---11---11---11-11-11-11--|

Chorus

G|-------------------------------------------------------------------------|
D|-------------------------------------------------------------------------|
A|-------------------------------10-12-13---------------5-6---6-6-5---5----|
E|-6--6-6-6-8-10-11-13--13-13-13-----------8--8-8-8-6-8-------------8------|

G|-------------------------------------------------------------------------|
D|-------------------------------------------------------------------------|
A|-----------------------------------------------------5-6---6-6-5---5-----|
E|-6--6-6-6-8-10-11-13--13-13-13-13-11-10-8--8-8-8-6-8-------------8-------|

G|-------------------------------------------------------------------------|
D|-------------------------------------------------------------------------|
A|-------------------------------10-12-13---------------5-6---6-6-5---5----|
E|-6--6-6-6-8-10-11-13--13-13-13-----------8--8-8-8-6-8-------------8------|


It ends on the A|-5- above however i think its nice to ring out with this...

G|----
D|----
A|----
E|-6~-

Thats every thing youneed to play this song.

Iv made a vid here using this exact tab....


Be gratefull if you could subscribe to me on there and let me know how you got on with 
tab :)
            
Hard to play? Try these video lessons and learn fast. | Correct




comments powered by Disqus
↑ Back to top | Tablatures and chords are parodies/interpretations of the original songs. You may use it for private study, scholarship, research or language learning purposes only