» » »

Olivia The Band, Something Greater Tabs (ver.1)

Artists:  A B C D E F G H I J K L M N O P Q R S T U V W X Y Z # 

Something Greater Tabs (ver.1)

Olivia The Band Tabs
 Rating:
4.4/5 (7 votes)
Something Greater lessons Tabs too difficult? Try these video lessons and learn fast
1
                -----------------------------------------------------------
Something Greater – Olivia The Band
-----------------------------------------------------------
Tuning: Standard
Intro & Chorus
e|----------------------------------------------------------------|
B|----------------------------------------------------------------|
G|--9-9-9--9-9-9--9-9-9--9-9-9------------------------------------|
D|--9-9-9--9-9-9--9-9-9--9-9-9--7-7-7--7-7-7----9-9-9--9-9-9------|
A|--7-7-7--7-7-7--6-6-6--7-7-7--7-7-7--7-7-7—---9-9-9--9-9-9------|
E|------------------------------5-5-5--5-5-5—---7-7-7--7-7-7------|

Verse
(rhythm)

e|----------------------------------------------------------------|
B|----------------------------------------------------------------|
G|----------------------------------------------------------------|
D|----------------------------------------------------------------|
A|7-7-7-7-7-7-7-7-7-7-7-7-7-7-7-7---------------------------------|
E|--------------------------------5-5-5-5-5-5-5-5-5-5-5-5-5-5-5-5-|

(lead)

e|----------------------------------------------------------------|
B|------------------------------------------------------------7p5-|
G|----9-------9-------9-------9-------9-------9-------9-----------|
D|--------------------------------------------------------6h7-----|
A|----------------------------------------------------------------|
E|----------------------------------------------------------------|

(rhythm)

e|----------------------------------------------------------------|
B|----------------------------------------------------------------|
G|----------------------------------------------------------------|
D|----------------------------------------------------------------|
A|----------------------------------------------------------------|
E|9-9-9-9-9-9-9-9-9-9-9-9-9-9-9-9-7-7-7-7-7-7-7-7-7-7-7-7-7-7-7-7-|

(lead)

e|----------------------------------------------------------------|
B|------------------------------------9p7-----9p7-----9p7-----9p7-|
G|----9-------9-------9-------9-----------------------------------|
D|----------------------------------------------------------------|
A|----------------------------------------------------------------|
E|----------------------------------------------------------------|


(rhythm)

e|----------------------------------------------------------------|
B|----------------------------------------------------------------|
G|----------------------------------------------------------------|
D|----------------------------------------------------------------|
A|7-7-7-7-7-7-7-7-7-7-7-7-7-7-7-7---------------------------------|
E|--------------------------------5-5-5-5-5-5-5-5-5-5-5-5-5-5-5-5-|

(lead)

e|----------------------------------------------------------------|
B|------------------------------------------------------------7p5-|
G|----9-------9-------9-------9-------9-------9-------9-----------|
D|--------------------------------------------------------6h7-----|
A|----------------------------------------------------------------|
E|----------------------------------------------------------------|

(rhythm)

e|----------------------------------------------------------------|
B|----------------------------------------------------------------|
G|----------------------------------------------------------------|
D|----------------------------------------------------------------|
A|----------------------------------------------------------------|
E|9-9-9-9-9-9-9-9-9-9-9-9-9-9-9-9-7-7-7-7-7-7-7-7-7-7-7-7-7-7-7-7-|

(lead)

e|------------------------------------7---------------7-----------|
B|----------------------------------------10--9---10------10--9---|
G|----9-------9-------9-------9-----------------------------------|
D|----------------------------------------------------------------|
A|----------------------------------------------------------------|
E|----------------------------------------------------------------|

Bridge

e|----------------------------------------------------------------|
B|----------------------------------------------------------------|
G|----------------------------------------------------------------|
D|--11-----9-----2-----6-----7-----11---9---7---------------------|
A|--11-----9-----2-----6-----7-----11---9---7---------------------|
E|--9------7-----0-----4-----5-----9----7---5---------------------|

Interlude (or something)

(rhythm)

e|----------------------------------------------------------------|
B|----------------------------------------------------------------|
G|----------------------------------------------------------------|
D|--7-7-7--9-9-9--11-11-11--14-14-14--7-7-7--9-9-9--2--2-2--------|
A|--7-7-7--9-9-9--11-11-11--14-14-14--7-7-7--9-9-9--2--2-2--------|
E|--5-5-5--7-7-7--9--9--9---12-12-12--5-5-5--7-7-7--0--0-0--------|


e|----------------------------------------------------------------|
B|----------------------------------------------------------------|
G|----------------------------------------------------------------|
D|--7-7-7--9-9-9--11-11-11--14-14-14--7-7-7--9-9-9--2-2-2--2-2-2--|
A|--7-7-7--9-9-9--11-11-11--14-14-14--7-7-7--9-9-9--2-2-2--2-2-2--|
E|--5-5-5--7-7-7--9--9--9---12-12-12--5-5-5--7-7-7--0-0-0--0-0-0--|



e|----------------------------------------------------------------|
B|----------------------------------------------------------------|
G|----------------------------------------------------------------|
D|--7-7-7--9-9-9--11-11-11--14-14-14--7-7-7--9-9-9--2--2-2--------|
A|--7-7-7--9-9-9--11-11-11--14-14-14--7-7-7--9-9-9--2--2-2--------|
E|--5-5-5--7-7-7--9--9--9---12-12-12--5-5-5--7-7-7--0--0-0--------|



e|----------------------------------------------------------------|
B|----------------------------------------------------------------|
G|----------------------------------------------------------------|
D|--7-7-7--9-9-9--11-11-11--14-14-14--7-7-7--9-9-9--2-2-2--2-2-2--|
A|--7-7-7--9-9-9--11-11-11--14-14-14--7-7-7--9-9-9--2-2-2--2-2-2--|
E|--5-5-5--7-7-7--9--9--9---12-12-12--5-5-5--7-7-7--0-0-0--0-0-0--|



e|----------------------------------------------------------------|
B|----------------------------------------------------------------|
G|----------------------------------------------------------------|
D|--7-7-7--9-9-9--11-11-11--14-14-14------------------------------|
A|--7-7-7--9-9-9--11-11-11--14-14-14------------------------------|
E|--5-5-5--7-7-7--9--9--9---12-12-12—-----------------------------|


Intro x 2
Verse
Chorus x 4
Verse
Chorus x 4
Bridge
Interlude
Chorus x 8
End

Solo during interlude to come soon

| h  hammer-on
| p  pull-off
            
Submit corrections

comments powered by Disqus
↑ Back to top | Olivia The Band Tabs for Something Greater. Lyrics for acoustic guitar and electric guitar. 1 Tablatures and chords are parodies/interpretations of the original songs. You may use it for private study, scholarship, research or language learning purposes only