» » »

Olivia The Band, Saturday Tabs (ver.1)

Artists:  A B C D E F G H I J K L M N O P Q R S T U V W X Y Z # 

Saturday Tabs (ver.1)

Olivia The Band Tabs
Rating:
0/5 (0 votes)
Saturday lessons Tabs too difficult? Try these video lessons and learn fast
                e|------------------------------------------------|
B|------------------------------------------------|
G|------------------------------------------------|
D|------4-4---6-6-4-3-4----------4-4---6-6-4-3----|
A|-9-9--2-2---4-4-2-1-2------9-9-2-2---4-4-2-1-2--|
E|-6-7-----------------------6-7---------------0--|

e|------------------|
B|------------------|
G|------------------|
D|---9-8-9h-8p------|x7
A|-------------9----|
E|------------------|
e|------------------|
B|------------------|
G|------------------|
D|---9-8-9h-8p------|x1
A|------------------|
E|------------------|

e|------------------|
B|------------------|
G|------------------|
D|---8-6-8h-6p------|x7
A|-------------9----|
E|------------------|

e|------------------|
B|------------------|
G|-------------7----|
D|---8-6-8h-6p------|x2
A|------------------|
E|------------------|

B
Night of Friday gotta feel it, 

Weekends over we can begin it.
G#
Over Sunday follow Monday, 
C#
No this is a Saturday
                                    C#  D# E
And I'm feelin' great
E                              F#
One thing left to do

one guitar plays something that i havent figure out yet

while the other plays

B
(Time to say)
Beautiful day
G#
(Time to say)
Beautiful day
These days are few
E
And far between
So get on your feet
F#
And sing along with angels
As they cry

E - B - F#

Thank you for life
Never taking any breath or any second
For granted I will fail yet I will try
I will try

B
Sun is sinking
Air is cooling
Day is dieing
Night arriving
G#
White wash
Ocean waves
E
No place I'd rather be
No wind no crowd
Only friends out
F#
This is our hope
This is your song

(Time to say)
Beautiful day
(Time to say)
Beautiful day
These days are few
And far between
So get on your feet
And sing along with angels
As they cry

E - B - F#

Thank you for life
Always taking every breath and every second
Moment opportunity
To shine

Bridge

G# F# E 
E F# G#

Arpeggio E B F#

Thank you for life
Never taking any breath or any second
For granted I will fail yet I will try

E B F# for the rest of the song

Thank you for life
Always taking every breath and every second
Moment opportunity
To shine

Thank you for life
Never taking any breath or any second
E                   B                     F#              
For granted I will fail yet I will try

End on E
            

comments powered by Disqus
↑ Back to top | Olivia The Band Tabs for Saturday. Lyrics for acoustic guitar and electric guitar. Tablatures and chords are parodies/interpretations of the original songs. You may use it for private study, scholarship, research or language learning purposes only