>
 >
Butterflies

Butterflies Guitar Tabs

Olivia The Band - Butterflies chords, tabs, tablatures, lyrics

Guitar lessons | Add/correct | Request | Top 50 tabs Artists:  A B C D E F G H I J K L M N O P Q R S T U V W X Y Z 0-9

Butterflies Guitar Tabs – Olivia The Band

CD, Sheet music, Poster

Do you like Butterflies? Share with your friends now
Tabs
Olivia the Band


* palm mute
X deaden
/ slide
h hammer
p pull
~ let ring
< pick slide

Verse 1(lead guitar)
X8
E--------------------------------------|
B-7777-7-10-8-7h8p7--------------------|
G-7777-7-7--7------7-4444-4-7-5-4h5p4--|
D--------------------5555-5-5-5------5-|
A--------------------------------------|
E--------------------------------------|
  ****               ****

Verse 1 (rhythm guitar)
X2
E-------------------------------------------------------------------------|
B-------------------------------------------------------------------------|
G-7777-7--7-7-777-7-------------------7777-7--7-7-777-7-------------------|
D-7777-7--7-7-777-7-5555-5--5-5-555-5-7777-7--7-7-777-7-5555-5--5-5-555-5-|
A-5555-5--5-5-555-5-5555-5--5-5-555-5-5555-5--5-5-555-5-5555-5--5-5-555-5-|
E-------------------3333-3--3-3-333-3-------------------3333-3--3-3-333-3-|
  ****        ***   ****        ***   ****        ***   ****        ***

Pre chorus (lead)
X1
E-------------------------------------------|
B-------------------------------------------|
G-------------------------------------------|
D-----5-4---7-5-4----------5-4---7-5-4------|
A---------5-------5-7~---------5-------5-7~-|
E-0~-------------------0~-------------------|

Pre chorus (rhythm)
X1
E---------------------------------|
B---------------------------------|
G---------------------------------|
D-2~------5~------2~------5~--7~--|
A-2~------5~------2~------5~--7~--|
E-0~------3~------0~------3~--5~--|

Chorus part 1 (both guitars)
X2
E----------------------------------------------------------------|
B----------------------------------------------------------------|
G-77-X7---------------------------------------------------7~-----|
D-77-X7---55-X5---99-X9---77-X7---55-X5---44-X4---55-X5---7~--7~-|
A-55-X5---55-X5---99-X9---77-X7---55-X5---44-X4---55-X5---5~--7~-|
E---------33-X3---77-X7---55-X5---33-X3---22-X2---33-X3-------5~-|

End chorus with
E------------------|
B------------------|
G-7~---------------|
D-7~---------------|
A-5~---------------|
E---------<<<<<<<<-|

Verse 2 (lead)
X8
E---------------------|
B-77-8-77-8-77-8-77-8-|
G-77-7-77-7-77-7-77-7-|
D-77-7-77-7-77-7-77-7-|
A---------------------|
E---------------------|
  **   **   **   **

Verse 2 (rhythm)
X2
E---------------------------------------------------------------------------------|
B---------------------------------------------------------------------------------|
G-77-7-77-7-77-7-77-7-77-7-77-7-77-7-77-7-----------------------------------------|
D-77-7-77-7-77-7-77-7-77-7-77-7-77-7-77-7-55-5-55-5-55-5-55-5-55-5-55-5-55-5-55-5-|
A-55-5-55-5-55-5-55-5-55-5-55-5-55-5-55-5-55-5-55-5-55-5-55-5-55-5-55-5-55-5-55-5-|
E-----------------------------------------33-3-33-3-33-3-33-3-33-3-33-3-33-3-33-3-|
  **   **   **   **   **   **   **   **   **   **   **   **   **   **   **   **

Play pre chorus X1

Play chorus part 1 X2

Chorus 2 part 2 (lead)
X4
E----------------------------------|
B----------------------------------|
G----------------------------------|
D---5-4-7~--5-4-7~--5-4-7~--5-4-7~-|
A----------------------------------|
E----------------------------------|

Chorus 2 part 2 (rhythm)
X2
E----------------------------------------------------------------|
B----------------------------------------------------------------|
G-77-X7---------------------------------------------------7~-----|
D-77-X7---55-X5---99-X9---77-X7---55-X5---44-X4---55-X5---7~--7~-|
A-55-X5---55-X5---99-X9---77-X7---55-X5---44-X4---55-X5---5~--7~-|
E---------33-X3---77-X7---55-X5---33-X3---22-X2---33-X3-------5~-|

Bridge part 1 (lead)
X6
E------------------------------|
B------------------------------|
G------------------------------|
D----5-7----7-9----5-7---5-4-7-|
A-55-----55-----55-----5-------|
E------------------------------|
  **     **     **     *

Bridge part 1 (rhythm)
X4 (come in after lead plays whatís above 2x)
E----------------------------------|
B-7---7---7---7---7---7---7---8-10-|
G---7---7---7---7---7---7---7------|
D----------------------------------|
A----------------------------------|
E----------------------------------|
  * * * * * * * * * * * * * * * * (last 2 times donít palm mute)

Bridge part 2 (both guitars)
X1
E----------------------------------|
B----------------------------------|
G-7~-----------7777~-----------7-7-|
D-7~-----------7777~-----------7-7-|
A-5~-----------5555~-----------5-5-|
E----------------------------------|

Bridge part 3 (both guitars)
X1
E--------------------------------------------------------------------------------|
B--------------------------------------------------------------------------------|
G-77-7/77-7/77-7/77-7/7-7/7/7/7/7/7/7/77-7/77-7/77-7/77-7/7-7-7/77-7/77-7/77-7/7-|
D-77-7/77-7/77-7/77-7/7-7/7/7/7/7/7/7/77-7/77-7/77-7/77-7/7-7-7/77-7/77-7/77-7/7-|
A-55-4/55-4/55-4/55-4/5-4/5/4/5/4/5/4/55-4/55-4/55-4/55-4/5-5-4/55-4/55-4/55-4/5-|
E--------------------------------------------------------------------------------|

Bridge part 3 count. (both guitars)
X1
E------------------------------------------|
B------------------------------------------|
G-7/77-7/77-7/77-7/77-7/7777-9999-11111111-|
D-7/77-7/77-7/77-7/77-7/7777-9999-11111111-|
A-4/55-4/55-4/55-4/55-4/5555-7777-9-9-9-9--|
E------------------------------------------|

Final Chorus part 1 (both guitars)
X1
E----------------------------------------------------------------|
B----------------------------------------------------------------|
G-7-------------------------------------------------------7~-----|
D-7-------5-------9-------77-X7---55-X5---44-X4---55-X5---7~--7~-|
A-5-------5-------9-------77-X7---55-X5---44-X4---55-X5---5~--7~-|
E---------3-------7-------55-X5---33-X3---22-X2---33-X3-------5~-|

Final chorus part 1 count. (both guitars)
X1
E----------------------------------------------------------------|
B----------------------------------------------------------------|
G-77-X7---------------------------------------------------7~-----|
D-77-X7---55-X5---99-X9---77-X7---55-X5---44-X4---55-X5---7~--7~-|
A-55-X5---55-X5---99-X9---77-X7---55-X5---44-X4---55-X5---5~--7~-|
E---------33-X3---77-X7---55-X5---33-X3---22-X2---33-X3-------5~-|

Final chorus part 2 (lead)
X4
E----------------------------------|
B----------------------------------|
G----------------------------------|
D---5-4-7~--5-4-7~--5-4-7~--5-4-7~-|
A----------------------------------|
E----------------------------------|

Final chorus part 2 (rhythm)
X2
E----------------------------------------------------------------|
B----------------------------------------------------------------|
G-77-X7---------------------------------------------------7~-----|
D-77-X7---55-X5---99-X9---77-X7---55-X5---44-X4---55-X5---7~--7~-|
A-55-X5---55-X5---99-X9---77-X7---55-X5---44-X4---55-X5---5~--7~-|
E---------33-X3---77-X7---55-X5---33-X3---22-X2---33-X3-------5~-|

End (lead)
X1
E------------------------------------|
B------------------------------------|
G---------------------------------7~-|
D-4-5-4-5-4-5-4-5-4-5-4-5-4-5-4-5-7~-|
A---------------------------------5~-|
E------------------------------------|

End (rhythm)
X1
E------------------------------------|
B------------------------------------|
G---------------------------------7~-|
D-7-7-7-7-7-7-7-7-7-7-7-7-7-7-7-7-7~-|
A-4-5-4-5-4-5-4-5-4-5-4-5-4-5-4-5-5~-|
E------------------------------------|





Comments


Popular Olivia The Band tabs & chords
Kill The Grey Bass Tabs
Missing Chords
My Friend Chords
808 Tabs
Saturday Tabs
Something Greater Tabs
Missing Ukulele
My Friend Ukulele


Song lyrics



↑ Back to top | Tablatures and chords are parodies/interpretations of the original songs. You may use it for private study, scholarship, research or language learning purposes only
© 2014 AZChords.com Contact us | Privacy policy | DMCA | Add/correct tabs | Request tabs | Top 50 tabs