>
 >
808

808 Guitar Tabs

Olivia The Band - 808 chords, tabs, tablatures, lyrics

Guitar lessons | Add/correct | Request | Top 50 tabs Artists:  A B C D E F G H I J K L M N O P Q R S T U V W X Y Z 0-9

808 Guitar Tabs – Olivia The Band

CD, Sheet music, Poster

Do you like 808? Share with your friends now
Tabs
----------------------------------------------------------------------------
                            Olivia the Band
                                   808
----------------------------------------------------------------------------

Hello, this is another one of my tabs that resemble me, but I donít have a job so itís a
different, but this song is about a vacation ending; knowing that you have to, in my
go back to school. It is a good song and isnít that difficult and so I just wanted to 
it out. I think I did a really good job on this one, just so that Iím not modest if it is,
so, yeah. Enjoy!

Username: dkm817 (same on X box live)

Guitar 1 Rhythmic (C G C F A D)
Guitar 2 Lead     (C G C F A D)
There might be a guitar 3 in the 2nd verse, just so you can tell
Intro

Guitar 1
D---------------------------------------------------------------------|
A---------------------------------------------------------------------|
F---------------------------------------------------------------------|
C------------------------------------------------------------------5--|
G---------------------------------------------------------------------|
C---------------------------------------------------------------------|

Guitar 2
D---------------------------------------------------------------------|
A---------------------------------------------------------------------|
F---------------------------------------------------------------------|
C-----3--------3--------3--------5----------3--------3--------3-------|
G-5-5---5--1-1---1-----------3-3---3----5-5---5--1-1---1-----------5--|
C-------------------3-3---3-------------------------------3-3---3-----|
Pm. .   .  . .   .  . .   .  . .   .    . .   .  . .   .  . .   .

Intro 2 x2 (Break-off)

Guitar 1
D------------------------------------------------------------------------|
A------------------------------------------------------------------------|
F-7-7-7-7--3-3-3-3-----------3-5-5-5--7-7-7-7--3-3-3-3-----------3-5-5-5-|
C-7-7-7-7--3-3-3-3--3-3-3-3--3-5-5-5--7-7-7-7--3-3-3-3--3-3-3-3--3-5-5-5-|
G-5-5-5-5--1-1-1-1--3-3-3-3--1-3-3-3--5-5-5-5--1-1-1-1--3-3-3-3--1-3-3-3-|
C-------------------3-3-3-3-----------------------------3-3-3-3----------|

Guitar 2
D--------------------------------------------------------------------------|
A--------------------------------------------------------------------------|
F--------------------------------------------------------------------------|
C-----3--------3--------3--------5----------3--------3--------3--------5---|
G-5-5---5--1-1---1-----------3-3---3----5-5---5--1-1---1-----------3-3---3-|
C-------------------3-3---3-------------------------------3-3---3----------|

Verse 1

Guitar 1
D-----------------------------------------------------------------|
A-----------------------------------------------------------------|
F-7-7-7-7-7-7-7-7-3-3-3-3-3-3-3-3-5-5-5-5-5-5-5-5-3-3-3-3-3-3-3-3-|
C-7-7-7-7-7-7-7-7-3-3-3-3-3-3-3-3-5-5-5-5-5-5-5-5-3-3-3-3-3-3-3-3-|
G-5-5-5-5-5-5-5-5-1-1-1-1-1-1-1-1-3-3-3-3-3-3-3-3-1-1-1-1-1-1-1-1-|
C-----------------------------------------------------------------|
Pm. . . . . . . . . . . . . . . . . . . . . . . . . . . . . . . .

Guitar 1 & 2
D-----------------------------------------------------------------|
A-----------------------------------------------------------------|
F-7-7-7-7-7-7-7-7-3-3-3-3-3-3-3-3-----------------5-5-5-5-3-5-5-5-|
C-7-7-7-7-7-7-7-7-3-3-3-3-3-3-3-3-3-3-3-3-3-3-3-3-5-5-5-5-3-5-5-5-|
G-5-5-5-5-5-5-5-5-1-1-1-1-1-1-1-1-3-3-3-3-3-3-3-3-3-3-3-3-1-3-3-3-|
C---------------------------------3-3-3-3-3-3-3-3-----------------|
Pm. . . . . . . . . . . . . . . . . . . . . . . . . . . .

Break Off

Guitar 1
D------------------------------------------------------------------------|
A------------------------------------------------------------------------|
F-7-7-7-7--3-3-3-3-----------3-5-5-5--7-7-7-7--3-3-3-3-----------3-5-5-5-|
C-7-7-7-7--3-3-3-3--3-3-3-3--3-5-5-5--7-7-7-7--3-3-3-3--3-3-3-3--3-5-5-5-|
G-5-5-5-5--1-1-1-1--3-3-3-3--1-3-3-3--5-5-5-5--1-1-1-1--3-3-3-3--1-3-3-3-|
C-------------------3-3-3-3-----------------------------3-3-3-3----------|

Guitar 2
D--------------------------------------------------------------------------|
A--------------------------------------------------------------------------|
F--------------------------------------------------------------------------|
C-----3--------3--------3--------5----------3--------3--------3--------5---|
G-5-5---5--1-1---1-----------3-3---3----5-5---5--1-1---1-----------3-3---3-|
C-------------------3-3---3-------------------------------3-3---3----------|

Verse 2

Guitar 1
D-----------------------------------------------------------------|
A-----------------------------------------------------------------|
F-7-7-7-7-7-7-7-7-3-3-3-3-3-3-3-3-5-5-5-5-5-5-5-5-3-3-3-3-3-3-3-3-|
C-7-7-7-7-7-7-7-7-3-3-3-3-3-3-3-3-5-5-5-5-5-5-5-5-3-3-3-3-3-3-3-3-|
G-5-5-5-5-5-5-5-5-1-1-1-1-1-1-1-1-3-3-3-3-3-3-3-3-1-1-1-1-1-1-1-1-|
C-----------------------------------------------------------------|
Pm. . . . . . . . . . . . . . . . . . . . . . . . . . . . . . . .

Guitar 2
D--------------------------------------------------------------------|
A--------------------------------------------------------------------|
F-10br-10-5-0-7-0-9-0-10-0-9-0-7-0--10br-10-5-0-7-0-9-0-10-0-9-0-7-0-|
C--------------------------------------------------------------------|
G--------------------------------------------------------------------|
C--------------------------------------------------------------------|
Pm          .   .   .    .   .   .            .   .   .    .   .   .
Guitar 2
D--------------------------------------------------------------------------|
A-------------------------------------------------------11-12-12--12-14-14-|
F-10br-10-5-0-7-0-9-0-10-0-9-0-7-0--10br-10-5-0-7-0-9-0-11-12-12--12-14-14-|
C-------------------------------------------------------9--10-10--10-12-12-|
G--------------------------------------------------------------------------|
C--------------------------------------------------------------------------|
Pm          .   .   .    .   .   .            .   .   .

Guitar 1 & 3
D--------------------------------------------------------------------------|
A--------------------------------------------------------------------------|
F-7-7-7-7-7-7-7-7-3-3-3-3-3-3-3-3-----------------5-5-5-5-5-5-5-5----------|
C-7-7-7-7-7-7-7-7-3-3-3-3-3-3-3-3-3-3-3-3-3-3-3-3-5-5-5-5-5-5-5-5--x-x-x-x-|
G-5-5-5-5-5-5-5-5-1-1-1-1-1-1-1-1-3-3-3-3-3-3-3-3-3-3-3-3-3-3-3-3--x-x-x-x-|
C---------------------------------3-3-3-3-3-3-3-3------------------x-x-x-x-|
Pm. . . . . . . . . . . . . . . . . . . . . . . . . . . .


Guitar 2
D--------------------------------------------------------------------|
A--------------------------------------------------------------------|
F-10br-10-5-0-7-0-9-0-10-0-9-0-7-0--10br-10-5-0-7-0-9-0-10-0-9-0-7-0-|
C--------------------------------------------------------------------|
G--------------------------------------------------------------------|
C--------------------------------------------------------------------|
Pm          .   .   .    .   .   .            .   .   .    .   .   .

Guitar 2
D---------------------------------------------------------------------------|
A---------------------------------------------------------------------------|
F-10br-10-5-0-7-0-9-0-10-0-9-0-7-0--10br-10-5-0-7-0-9-0-10-5-5-5-5----------|
C----------------------------------------------------------5-5-5-5--x-x-x-x-|
G----------------------------------------------------------3-3-3-3--x-x-x-x-|
C-------------------------------------------------------------------x-x-x-x-|
Pm          .   .   .    .   .   .            .   .   .

Chorus

Guitar 1 & 2
D-----------------------------------------------------------------|
A-----------------------------------------------------------------|
F-7-7-7-7-7-7-7-7-3-3-3-3-3-3-3-3-----------------5-5-5-5-5-5-5-5-|
C-7-7-7-7-7-7-7-7-3-3-3-3-3-3-3-3-3-3-3-3-3-3-3-3-5-5-5-5-5-5-5-5-|
G-5-5-5-5-5-5-5-5-1-1-1-1-1-1-1-1-3-3-3-3-3-3-3-3-3-3-3-3-3-3-3-3-|
C---------------------------------3-3-3-3-3-3-3-3-----------------|

Guitar 1 & 2
D----------------------------------------------------------------------|
A----------------------------------------------------------------------|
F-7-7-7-7-7-7-7-7-3-3-3-3-3-3-3-3-----------------5-5-5-5--------------|
C-7-7-7-7-7-7-7-7-3-3-3-3-3-3-3-3-3-3-3-3-3-3-3-3-5-5-5-5-x-x--x--x--x-|
G-5-5-5-5-5-5-5-5-1-1-1-1-1-1-1-1-3-3-3-3-3-3-3-3-3-3-3-3-x-x--x--x--x-|
C---------------------------------3-3-3-3-3-3-3-3---------x-x--x--x--x-|


Guitar 1 & 2
D-----------------------------------------------------------------|
A-----------------------------------------------------------------|
F-7-7-7-7-7-7-7-7-3-3-3-3-3-3-3-3-----------------5-5-5-5-5-5-5-5-|
C-7-7-7-7-7-7-7-7-3-3-3-3-3-3-3-3-3-3-3-3-3-3-3-3-5-5-5-5-5-5-5-5-|
G-5-5-5-5-5-5-5-5-1-1-1-1-1-1-1-1-3-3-3-3-3-3-3-3-3-3-3-3-3-3-3-3-|
C---------------------------------3-3-3-3-3-3-3-3-----------------|

Guitar 1 & 2
D-----------------------------------------------------------------|
A-----------------------------------------------------------------|
F---------------------------------3-3-3-3-3-3-3-3-3-3-3-3-3-3-3-3-|
C-5-5-5-5-5-5-5-5-5-5-5-5-5-5-5-5-3-3-3-3-3-3-3-3-3-3-3-3-3-3-3-3-|
G-5-5-5-5-5-5-5-5-5-5-5-5-5-5-5-5-1-1-1-1-1-1-1-1-1-1-1-1-1-1-1-1-|
C-5-5-5-5-5-5-5-5-5-5-5-5-5-5-5-5---------------------------------|

Break Off

Guitar 1
D------------------------------------------------------------------------|
A------------------------------------------------------------------------|
F-7-7-7-7--3-3-3-3-----------3-5-5-5--7-7-7-7--3-3-3-3-----------3-5-5-5-|
C-7-7-7-7--3-3-3-3--3-3-3-3--3-5-5-5--7-7-7-7--3-3-3-3--3-3-3-3--3-5-5-5-|
G-5-5-5-5--1-1-1-1--3-3-3-3--1-3-3-3--5-5-5-5--1-1-1-1--3-3-3-3--1-3-3-3-|
C-------------------3-3-3-3-----------------------------3-3-3-3----------|
 I donít know what effect they use sorry -----------> |_______________---|

Guitar 2
D-------------------------------------------------------------------------|
A-------------------------------------------------------------------------|
F-------------------------------------------------------------------------|
C-----3--------3--------3--------5----------3--------3--------------------|
G-5-5---5--1-1---1-----------3-3---3----5-5---5--1-1---1------------------|
C-------------------3-3---3-----------------------------------------------|


Verse 2

Guitar 1
D-----------------------------------------------------------------|
A-----------------------------------------------------------------|
F-7-7-7-7-7-7-7-7-3-3-3-3-3-3-3-3-5-5-5-5-5-5-5-5-3-3-3-3-3-3-3-3-|
C-7-7-7-7-7-7-7-7-3-3-3-3-3-3-3-3-5-5-5-5-5-5-5-5-3-3-3-3-3-3-3-3-|
G-5-5-5-5-5-5-5-5-1-1-1-1-1-1-1-1-3-3-3-3-3-3-3-3-1-1-1-1-1-1-1-1-|
C-----------------------------------------------------------------|
Pm. . . . . . . . . . . . . . . . . . . . . . . . . . . . . . . .

Guitar 2
D--------------------------------------------------------------------|
A--------------------------------------------------------------------|
F-10br-10-5-0-7-0-9-0-10-0-9-0-7-0--10br-10-5-0-7-0-9-0-10-0-9-0-7-0-|
C--------------------------------------------------------------------|
G--------------------------------------------------------------------|
C--------------------------------------------------------------------|
Pm          .   .   .    .   .   .            .   .   .    .   .   .

Guitar 2
D--------------------------------------------------------------------|
A--------------------------------------------------------------------|
F-10br-10-5-0-7-0-9-0-10-0-9-0-7-0--10br-10-5-0-7-0-9-0-10-0-9-0-7-0-|
C--------------------------------------------------------------------|
G--------------------------------------------------------------------|
C--------------------------------------------------------------------|
Pm          .   .   .    .   .   .            .   .   .    .   .   .


Guitar 1 & 3
D--------------------------------------------------------------------------|
A--------------------------------------------------------------------------|
F-7-7-7-7-7-7-7-7-3-3-3-3-3-3-3-3-----------------5-5-5-5-5-5-5-5----------|
C-7-7-7-7-7-7-7-7-3-3-3-3-3-3-3-3-3-3-3-3-3-3-3-3-5-5-5-5-5-5-5-5--x-x-x-x-|
G-5-5-5-5-5-5-5-5-1-1-1-1-1-1-1-1-3-3-3-3-3-3-3-3-3-3-3-3-3-3-3-3--x-x-x-x-|
C---------------------------------3-3-3-3-3-3-3-3------------------x-x-x-x-|
Pm. . . . . . . . . . . . . . . . . . . . . . . . . . . .


Guitar 2
D--------------------------------------------------------------------|
A--------------------------------------------------------------------|
F-10br-10-5-0-7-0-9-0-10-0-9-0-7-0--10br-10-5-0-7-0-9-0-10-0-9-0-7-0-|
C--------------------------------------------------------------------|
G--------------------------------------------------------------------|
C--------------------------------------------------------------------|
Pm          .   .   .    .   .   .            .   .   .    .   .   .

Guitar 2
D---------------------------------------------------------------------------|
A---------------------------------------------------------------------------|
F-10br-10-5-0-7-0-9-0-10-0-9-0-7-0--10br-10-5-0-7-0-9-0-10-5-5-5-5----------|
C----------------------------------------------------------5-5-5-5--x-x-x-x-|
G----------------------------------------------------------3-3-3-3--x-x-x-x-|
C-------------------------------------------------------------------x-x-x-x-|
Pm         .   .   .    .   .   .             .   .   .

Chorus

Guitar 1 & 2
D-----------------------------------------------------------------|
A-----------------------------------------------------------------|
F-7-7-7-7-7-7-7-7-3-3-3-3-3-3-3-3-----------------5-5-5-5-5-5-5-5-|
C-7-7-7-7-7-7-7-7-3-3-3-3-3-3-3-3-3-3-3-3-3-3-3-3-5-5-5-5-5-5-5-5-|
G-5-5-5-5-5-5-5-5-1-1-1-1-1-1-1-1-3-3-3-3-3-3-3-3-3-3-3-3-3-3-3-3-|
C---------------------------------3-3-3-3-3-3-3-3-----------------|

Guitar 1 & 2
D----------------------------------------------------------------------|
A----------------------------------------------------------------------|
F-7-7-7-7-7-7-7-7-3-3-3-3-3-3-3-3-----------------5-5-5-5--------------|
C-7-7-7-7-7-7-7-7-3-3-3-3-3-3-3-3-3-3-3-3-3-3-3-3-5-5-5-5-x-x--x--x--x-|
G-5-5-5-5-5-5-5-5-1-1-1-1-1-1-1-1-3-3-3-3-3-3-3-3-3-3-3-3-x-x--x--x--x-|
C---------------------------------3-3-3-3-3-3-3-3---------x-x--x--x--x-|


Guitar 1 & 2
D-----------------------------------------------------------------|
A-----------------------------------------------------------------|
F-7-7-7-7-7-7-7-7-7-7-7-7-7-7-7-7-3-3-3-3-3-3-3-3-3-3-3-3-3-3-3-3-|
C-7-7-7-7-7-7-7-7-7-7-7-7-7-7-7-7-3-3-3-3-3-3-3-3-3-3-3-3-3-3-3-3-|
G-5-5-5-5-5-5-5-5-5-5-5-5-5-5-5-5-1-1-1-1-1-1-1-1-1-1-1-1-1-1-1-1-|
C-----------------------------------------------------------------|

Guitar 1 & 2
D-----------------------------------------------------------------|
A-----------------------------------------------------------------|
F---------------------------------5-5-5-5-5-5-5-5-5-5-5-5-5-5-5-5-|
C-3-3-3-3-3-3-3-3-3-3-3-3-3-3-3-3-5-5-5-5-5-5-5-5-5-5-5-5-5-5-5-5-|
G-3-3-3-3-3-3-3-3-3-3-3-3-3-3-3-3-3-3-3-3-3-3-3-3-3-3-3-3-3-3-3-3-|
C-3-3-3-3-3-3-3-3-3-3-3-3-3-3-3-3---------------------------------|

Bridge

Guitar 1 no distortion, clean
D---------------------------------------|
A---------------------------------------|
F-7~~~-5~~~------3~~~-7~~~-5~~~---------|
C-7~~~-5~~~-3~~~-3~~~-7~~~-5~~~-3~~~~~~-|
G-5~~~-3~~~-3~~~-1~~~-5~~~-3~~~-3~~~~~~-|
C-----------3~~~----------------3~~~~~~-|
                                x     X

Breakdown x2

Guitar 1
D-18--18-18--x-x-17--18--18-18--x-x-17--18--18-18--x-x-17--18--18-18-|
A-18--18-18--x-x-17--18--18-18--x-x-17--18--18-18--x-x-17--18--18-18-|
F-16--16-16--x-x-15--16--16-16--x-x-15--16--16-16--x-x-15--16--16-16-|
C--------------------------------------------------------------------|
G--------------------------------------------------------------------|
C--------------------------------------------------------------------|

Guitar 1 continued
D-18--18-18-|
A-18--18-18-|
F-16--16-16-|
C-----------|
G-----------|
C-----------|

Guitar 2 (after guitar 1 plays once)
D-----------------------------------------------|
A-14-14---14--14--14--14-14--14-14---14--14--14-|
F-14-14---14--14--14--14-14--14-14---14--14--14-|
C-12-12---12--12--12--12-12--12-12---12--12--12-|
G-----------------------------------------------|
C-----------------------------------------------|

Guitar Solo (or a breakdown 2 like a guitar solo)

Guitar 1 x2
D-18--18-18--x-x-17--18--18-18--x-x-17--18--18-18--x-x-17--18--18-18-|
A-18--18-18--x-x-17--18--18-18--x-x-17--18--18-18--x-x-17--18--18-18-|
F-16--16-16--x-x-15--16--16-16--x-x-15--16--16-16--x-x-15--16--16-16-|
C--------------------------------------------------------------------|
G--------------------------------------------------------------------|
C--------------------------------------------------------------------|

Guitar 1 continued
D-18--18-18-|
A-18--18-18-|
F-16--16-16-|
C-----------|
G-----------|
C-----------|

Guitar 3 (after guitar 1 plays once)
D-----------------------------------------------|
A-14-14---14--14--14--14-14--14-14---14--14--14-|
F-14-14---14--14--14--14-14--14-14---14--14--14-|
C-12-12---12--12--12--12-12--12-12---12--12--12-|
G-----------------------------------------------|
C-----------------------------------------------|

Guitar 2
D-------------------------------------------------------------------------|
A-------------------------------------------------------------------------|
F-7-7-7-7-7-7-7-7-9-9-9-9-9-9-9-9-10-10-10-10-10-10-10-10-5-5-5-5-5-5-5-5-|
C-5-5-5-5-5-5-5-5-7-7-7-7-7-7-7-7-8--8--8--8--8--8--8--8--3-3-3-3-3-3-3-3-|
G-------------------------------------------------------------------------|
C-------------------------------------------------------------------------|

Guitar 2
D-----------------------------------------------------------------|
A-----------------------------------------------------------------|
F-----------------5-5-5-5-5-5-5-5-7-7-7-7-7-7-7-7-----------------|
C-7-7-7-7-7-7-7-7-3-3-3-3-3-3-3-3-5-5-5-5-5-5-5-5-7-7-7-7-7-7-7-7-|
G-5-5-5-5-5-5-5-5---------------------------------5-5-5-5-5-5-5-5-|
C-----------------------------------------------------------------|

Chorus

Guitar 1 & 2
D-----------------------------------------------------------------|
A-----------------------------------------------------------------|
F-7-7-7-7-7-7-7-7-3-3-3-3-3-3-3-3-----------------5-5-5-5-5-5-5-5-|
C-7-7-7-7-7-7-7-7-3-3-3-3-3-3-3-3-3-3-3-3-3-3-3-3-5-5-5-5-5-5-5-5-|
G-5-5-5-5-5-5-5-5-1-1-1-1-1-1-1-1-3-3-3-3-3-3-3-3-3-3-3-3-3-3-3-3-|
C---------------------------------3-3-3-3-3-3-3-3-----------------|

Guitar 1 & 2
D----------------------------------------------------------------------|
A----------------------------------------------------------------------|
F-7-7-7-7-7-7-7-7-3-3-3-3-3-3-3-3-----------------5-5-5-5--------------|
C-7-7-7-7-7-7-7-7-3-3-3-3-3-3-3-3-3-3-3-3-3-3-3-3-5-5-5-5-x-x--x--x--x-|
G-5-5-5-5-5-5-5-5-1-1-1-1-1-1-1-1-3-3-3-3-3-3-3-3-3-3-3-3-x-x--x--x--x-|
C---------------------------------3-3-3-3-3-3-3-3---------x-x--x--x--x-|

 Guitar 1 & 2
D-----------------------------------------------------------------|
A-----------------------------------------------------------------|
F-7-7-7-7-7-7-7-7-3-3-3-3-3-3-3-3-----------------5-5-5-5-5-5-5-5-|
C-7-7-7-7-7-7-7-7-3-3-3-3-3-3-3-3-3-3-3-3-3-3-3-3-5-5-5-5-5-5-5-5-|
G-5-5-5-5-5-5-5-5-1-1-1-1-1-1-1-1-3-3-3-3-3-3-3-3-3-3-3-3-3-3-3-3-|
C---------------------------------3-3-3-3-3-3-3-3-----------------|


Guitar 1 & 2
D-----------------------------------------------------------------|
A-----------------------------------------------------------------|
F-7-7-7-7-7-7-7-7-3-3-3-3-3-3-3-3-----------------5-5-5-5-5-5-5-5-|
C-7-7-7-7-7-7-7-7-3-3-3-3-3-3-3-3-3-3-3-3-3-3-3-3-5-5-5-5-5-5-5-5-|
G-5-5-5-5-5-5-5-5-1-1-1-1-1-1-1-1-3-3-3-3-3-3-3-3-3-3-3-3-3-3-3-3-|
C---------------------------------3-3-3-3-3-3-3-3-----------------|

Tab Legend
h  -  hammer-on
p  -  pull-off
/  -  slide up
\  -  slide down
ps/-  pickslide up
ps\-  pickslide down
~  -  let ring
pm.-  palm mute
x X-  get louder
X x-  get softer

Alright, thatís it. Thanks again for viewing, and if you have the time, because I know





Comments


Popular Olivia The Band tabs & chords
Kill The Grey Bass Tabs
Missing Chords
My Friend Chords
Butterflies Tabs
Saturday Tabs
Something Greater Tabs
Missing Ukulele
My Friend Ukulele


Song lyrics



↑ Back to top | Tablatures and chords are parodies/interpretations of the original songs. You may use it for private study, scholarship, research or language learning purposes only
© 2014 AZChords.com Contact us | Privacy policy | DMCA | Add/correct tabs | Request tabs | Top 50 tabs