» » »

Olivia Lufkin, Winter Sleep Tabs (ver.1)

Artists:  A B C D E F G H I J K L M N O P Q R S T U V W X Y Z # 

Winter Sleep Tabs (ver.1)

Olivia Lufkin Tabs
Rating:
2/5 (1 vote)
Winter Sleep lessons Tabs too difficult? Try these video lessons and learn fast
                Olivia Lufkin


Intro:

e|--8---3----------8---3----------8---3----------8---3-----------|
B|---------1----1---------1----1---------1----1---------1--------|
G|---------------------------------------------------------------|
D|---------------------------------------------------------------|
A|---------------------------------------------------------------|
E|---------------------------------------------------------------|x2





Verse:

e|--------------------------------------------------------|
B|-------------------------------8------------------------|
G|-------12--------12------------7-------------12---------|
D|-------12--------12----------------------10--12---------|
A|---10---------14----------7------------8----------------|
E|-8---------12-----------5-------------------------------|x4




Prechorus:

e|-0-------------------------0-------------1--4--11--------------|
B|----------4-----------4----------------2-------11--------------|
G|--------3---3-------3----------------1-------------------------|
D|------5-------5---5----------------3---------------------------|
A|----6-----------6----------------4-----------------------------|
E|--6----------------------------4-------------------------------|



Chorus:


e|---------------------------------------------------------------|
B|---------------------------------------------------------------|
G|---------------------------------------------------------------|
D|------10-12-------10-12------10-12------10-12-----7-9-----7-9--|
A|---10----------10---------10---------10---------7-------7------|
E|-8-----------8----------8----------8----------5-------5--------|

e|---------------------|
B|---------------------|
G|---------------------|
D|----7-9-----7-9------|
A|--7-------7----------|
E|-5------5------------| x4 1/2


e|-----4-11-------------|
B|---6---11-------------|
G|-4--------------------|
D|----------------------|
A|----------------------|
E|----------------------|


i forgot the bridge part, but i'll get to that later
            
Submit corrections

comments powered by Disqus
↑ Back to top | Olivia Lufkin Tabs for Winter Sleep. Lyrics for acoustic guitar and electric guitar. Tablatures and chords are parodies/interpretations of the original songs. You may use it for private study, scholarship, research or language learning purposes only