>
 >
Tightrope

Tightrope Guitar Tabs

Oleander - Tightrope chords, tabs, tablatures, lyrics

Guitar lessons | Add/correct | Request | Top 50 tabs Artists:  A B C D E F G H I J K L M N O P Q R S T U V W X Y Z 0-9

Tightrope Guitar Tabs – Oleander

CD, Sheet music, Poster

Do you like Tightrope? Share with your friends now
Tabs
Tightrope- Oleander
Tuning: Down a half step (Eb Ab Db Gb Bb eb)

One helluva long tab for yet another simply amazing Oleander song.
This must've taken at least an hour (and maybe a half) for me to get!!
If you have anything to add/tell me, feel free to email :)

Intro/Verse:
eb --------------------------------------------------
Bb --------------------------------------------------
Gb -------0-----------0------------0-----------0-----
Db ---4------4----4------4-----4------4----4------4--
Ab -5---5-------5---5--------3---3-------3---3-------
Eb --------------------------------------------------

eb ------------------------------------------------------
Bb ------------------------------------------------------
Gb -------0-----------0----------------0-----------0-----
Db ---4------4----4------4-----------4----4------4---4---
Ab -2---2-------2---2-------2p0----5------------5--------
Eb ------------------------------3------------3----------

2nd verse lead guitar: (enters after "running from sleep")
eb ------------------------------------------------------------------
Bb -7---7--7-7/9/11~-----10/5~---------------------8-----------------
Gb --------------------------------11/7~---------7---7----7-7-7-7-7--
Db ------------------------------------------5-5-------5--5-5-5-5-5--
Ab ------------------------------------------------------------------
Eb ------------------------------------------------------------------

Pre-chorus: (lead & rhythm shown)
eb ---------------------------|------------------------------------------------
Bb ---------------------------|------(0)---------(0)----------3-----------3----
Gb ---------------------------|-------0-----------0----------(4)---------(4)---
Db -2-2-2-2-2-2--5-5-5-5-5-5--|-----2---2-------2---2-------5---5-------5---5--
Ab -2-2-2-2-2-2--5-5-5-5-5-5--|---2-----------2-----------5-----------5--------
Eb -0-0-0-0-0-0--3-3-3-3-3-3--|-0-----------0-----------3-----------3----------

Chorus:
eb ---------------------------------------------------
Bb ---------------------------------------------------
Gb -7-7-7-7-7-7-7-7-----------------------------------
Db -7-7-7-7-7-7-7-7--5-5-5-5-5--2-2-2-2-2--5-5-5-5-5--
Ab -5-5-5-5-5-5-5-5--5-5-5-5-5--2-2-2-2-2--5-5-5-5-5--
Eb ------------------3-3-3-3-3--0-0-0-0-0--3-3-3-3-3--

Post-chorus fill:
eb ---------------------------------------------------------------------
Bb ---------------------------------------------------------------------
Gb -/11~----12/14--9/11/9/11/9/11/..------7h9--7h9p7--7/----------------
Db --x------x--x---x-x--x-x--x-x------7h9-----------------7/9-7---------
Ab -/9~-----10/12--7/9/-7/9/-7/9-/..-----------------------------9-7-5--
Eb ---------------------------------------------------------------------

eb -------------------------------------------------------
Bb -------------------------------------------------------
Gb -----------------------------------------7--7--7/9/7~--
Db -5-5-5-5--x--5-7-7-7-7--x--7-9-9-9-9--x--x--x--x-x-x---
Ab -x-x-x-x--x--x-x-x-x-x--x--x-x-x-x-x--x--5--5--5/7/5~--
Eb -3-3-3-3--x--3/5-5-5-5--x--5/7-7-7-7--x----------------

BIG LONG Solo:
eb ----------------------------------------------------------------------------
Bb ----------10----------------10------------------------13------13--13/15/13--
Gb ----11-------11-9-----11---------9h10p9-------------------------------------
Db -12----12----------12----12-------------12h13p12--10------10----------------
Ab ----------------------------------------------------------------------------
Eb ----------------------------------------------------------------------------

eb ------------------------------------------------------------------------------------
Bb -12--12~--12-12--12h13p12-8---8/10-10-10-10--10/12-12-12-12--12/15-15-15-15--15h17--
Gb ------------------------------------------------------------------------------------
Db ------------------------------------------------------------------------------------
Ab ------------------------------------------------------------------------------------
Eb ------------------------------------------------------------------------------------

eb ---------------------------------------------------------------------
Bb -15--15--15--15-15/17/15--13--13--13--13-13/15/13-12h13p12h13p12h13--
Gb ---------------------------------------------------------------------
Db ---------------------------------------------------------------------
Ab ---------------------------------------------------------------------
Eb ---------------------------------------------------------------------

eb -------------------------------------------------------------------------------
Bb -12-12-12--11h12-11h12-12h13h12------------------------------------------------
Gb -------------------------------------------------------------------------------
Db ---------------------------------5-5-5-5--x--5-7-7-7-7--x--7-9-9-9-9-9-9-9-9/--
Ab ---------------------------------x-x-x-x--x--x-x-x-x-x--x--x-x-x-x-x-x-x-x-x---
Eb ---------------------------------3-3-3-3--x--3/5-5-5-5--x--5/7-7-7-7-7-7-7-7/--

Chords: D#5: 022xxx   F#5: 355xxx   C#5: x577xx





Comments


Popular Oleander tabs & chords
Are You There? Bass Tabs
Boys Don't Cry Chords
Benign Tabs
Benign 1 Tabs
Hands Off The Wheel Tabs
I Walk Alone 2 Tabs
Unwind Tabs
Why I'm Here Tabs
Yours If You Like Tabs
Youll Find Out Ukulele


Song lyrics



↑ Back to top | Tablatures and chords are parodies/interpretations of the original songs. You may use it for private study, scholarship, research or language learning purposes only
© 2014 AZChords.com Contact us | Privacy policy | DMCA | Add/correct tabs | Request tabs | Top 50 tabs