» » »

Oleander, Stupid Tabs (ver.2)

Artists:  A B C D E F G H I J K L M N O P Q R S T U V W X Y Z # 

Stupid Tabs (ver.2)

Oleander Tabs
 Rating:
4/5 (4 votes)
Stupid lessons Tabs too difficult? Try these video lessons and learn fast
1
                performer: Oleander

tuning: 6  5  4  3  2  1
        Db Ab Db Gb Bb Eb

intro riff:
-----------------------
-----------------------
-----------------------
--0-0-0-0--6-6-6-6-----
--0-0-0-0--6-6-6-6-----
--0-0-0-0--6-6-6-6-----

verse1: (just bass playing corrisponding notes)

SO SAD TO HEAR THAT YOU DON'T WANT TO HANG AROUND WITH ME
SO LAME TO SEE YOU LEAVE AND TO KNOW THAT YOU BELIEVE THAT IT'S OVER

2 bars of intro riff

CAUSE WHEN YOUR WEAK I FEEL THE NEED TO GET UNDERNEATH YOUR SKIN
AND WHEN YOU START TO TWEAK I FIND A WAY TO GET UP BESIDE YOU

chorus: (with intro riff)
STUPID, STUPID, STUPID

bridge: 
------------------------------------------------]--------
------------------------------------------------]--------
-------------------------------------------4BARS]--------
--3-3-3-3-3-3-3-3-3-3-3-5-1-1-1-1-1-1-1-1-------]-0-0-0-0
--3-3-3-3-3-3-3-3-3-3-3-5-1-1-1-1-1-1-1-1-------]-0-0-0-0
--3-3-3-3-3-3-3-3-3-3-3-5-1-1-1-1-1-1-1-1-------]-0-0-0-0

IN TIME YOU'LL LEARN TO ME AS MUCH AS YOU LOVE YOURSELF
OH IN TIME YOU'LL LEARN TO HATE ME

verse2: (with bass and dying guitar feedback)

CAUSE WHEN I FEEL THE NEED TO HAVE YOU BACK BY MY SIDE
I AM SWEET IT MAKES ME SICK TO KNOW THAT I CAN BE SO BLIND
            
Submit corrections

comments powered by Disqus
↑ Back to top | Oleander Tabs for Stupid. Lyrics for acoustic guitar and electric guitar. 1 Tablatures and chords are parodies/interpretations of the original songs. You may use it for private study, scholarship, research or language learning purposes only