>
 >
Oleander Why Im Here

Oleander Why Im Here Guitar Tabs

Oleander - Oleander Why Im Here chords, tabs, tablatures, lyrics

Guitar lessons | Add/correct | Request | Top 50 tabs Artists:  A B C D E F G H I J K L M N O P Q R S T U V W X Y Z 0-9

Oleander Why Im Here Guitar Tabs – Oleander

CD, Sheet music, Poster

Do you like Oleander Why Im Here? Share with your friends now
Tabs
This is a cool new band that made it big. This is the song that broke through.
It's pretty cool.
 
*DROP D TUNING*

Intro/Verse:
E----------------------------------------|
B----------------------------------------|
G----------------------------------------|
D-----6---------9---------6----------1---|
A---6---6-----9---9-----6---6------1---1-|
D-6---------9---------6--------0-1-------|

Interlude 1:
E-----------------------------------------|
B----------------------------------6b-----|
G-5/8v-8-9-8-8/10-9-4-6b-4-3-4-0-1-6b--1v-|
D-----------------------------------------|
A-----------------------------------------|
D-----------------------------------------|

Pre-Chorus Chord Progression:
E---|---|----|----|
B---|---|----|----|
G---|---|----|----|
D-6-|-9-|-11-|-13-|
A-6-|-9-|-11-|-13-|
D-6-|-9-|-11-|-13-|

Chorus Chord Progression:
E---|---|---|---|---|
B---|---|---|---|---|
G---|---|---|---|---|
D-2-|-4-|-0-|-2-|-4-|
A-2-|-4-|-0-|-2-|-4-|
D-2-|-4-|-0-|-2-|-4-|

Interlude 2:
E----------------------------------------|
B--------------------------------6b---6b-|
G-5/8v-8-9-8-8/10-9-4-6b-4-1/4-6-6b-8-6b-|
D----------------------------------------|
A----------------------------------------|
D----------------------------------------|





Comments


Popular Oleander tabs & chords
Boys Don't Cry Chords
How Could I? Chords
Runaway Train Chords
Benign 1 Tabs
Don Break My Fall Tabs
Stupid Tabs
Stupid 1 Tabs
Where Were You Then? Tabs
Why Im Here 2 Tabs
Runaway Train Ukulele


Song lyrics



↑ Back to top | Tablatures and chords are parodies/interpretations of the original songs. You may use it for private study, scholarship, research or language learning purposes only
© 2014 AZChords.com Contact us | Privacy policy | DMCA | Add/correct tabs | Request tabs | Top 50 tabs