» » »

Oleander, Jimmy Shaker Day Tabs (ver.1)

Artists:  A B C D E F G H I J K L M N O P Q R S T U V W X Y Z # 

Jimmy Shaker Day Tabs (ver.1)

Oleander Tabs
 Rating:
4/5 (4 votes)
Jimmy Shaker Day lessons Tabs too difficult? Try these video lessons and learn fast
1
                Jimmy Shaker Day- Oleander
Tuning: Dropped D down a half step (Db Ab Db Gb Bb eb)
~= hold note   h=hammer on

This B-side off Unwind totally rawks! The sound reminds me a lot of Nirvana.
There are many different parts that I can't really break it down into verse/chorus type thing.
I'll just give all the parts I hear. Hope this helps you all!

Intro Part 1:
eb ------------------------------------------------------
Bb ------------------------------------------------------
Gb ------------------------------------------------------
Db -2-2-2--0-0-0--2-2-2--0-0-0--2--0---2-2-2--0-0-0--2~--
Ab -2-2-2--0-0-0--2-2-2--0-0-0--2--0---2-2-2--0-0-0--2~--
Db -2-2-2--0-0-0--2-2-2--0-0-0--2--0---2-2-2--0-0-0--2~--

Intro part 2 (rhythm)                  The lead part comes in roughly where the ** is placed
eb -------------------------*----------------------------|--------------------------------
Bb -------------------------*----------------------------|--------------------------------
Gb -------------------------*----------------------------|--------------------------------
Db -0-0-0-0-0--2-2-2-2-2--5-*5-5-5-5-5--5-5-5-5-5-5--5~--|-----4h5-4---------4h5---4---4--
Ab -0-0-0-0-0--2-2-2-2-2--5-*5-5-5-5-5--5-5-5-5-5-5--5~--|-5-5-------5----5------5---5----
Db -0-0-0-0-0--2-2-2-2-2--5-*5-5-5-5-5--5-5-5-5-5-5--5~--|--------------0-----------------

Verse:
eb ------------------------------------------------------------------------------
Bb ------------------------------------------------------------------------------
Gb -4-4-4-4-4---4-4-4-4-4---4-4-4-4-4---4-4-4-4-4--------------------------------
Db -4-4-4-4-4---4-4-4-4-4---4-4-4-4-4---4-4-4-4-4------5-5-5-5-5-5-5-5-5-5-5-5-5-
Ab -2-2-2-2-2---2-2-2-2-2---2-2-2-2-2---2-2-2-2-2-then-5-5-5-5-5-5-5-5-5-5-5-5-5-
Db ----------------------------------------------------5-5-5-5-5-5-5-5-5-5-5-5-5-

Other thing: "nobody likes it where you are"
eb ---------------------------------------------------------------------------
Bb ----------------------------------------------------------^-------------^--
Gb -----------------------------------------------4-4-4-4-4--9--4-4-4-4-4--9--
Db -5-5-5-5-5-5-5-5-5-5--7-7-7-7-7-7-7-7-7-7--5---4-4-4-4-4-----4-4-4-4-4-----
Ab -5-5-5-5-5-5-5-5-5-5--7-7-7-7-7-7-7-7-7-7--5---2-2-2-2-2-----2-2-2-2-2-----
Db -5-5-5-5-5-5-5-5-5-5--7-7-7-7-7-7-7-7-7-7--5-------------------------------

Lead played during the "Every night I wonder why" part
eb -----------------------------------------------
Bb -----------------------------------------------
Gb -----------------------------------------------
Db --7~---6~---5~------4h5-4---------4h5---4---4--
Ab ----------------5-5-------5----5------5---5----
Db -----------------------------0-----------------

Riff during "We sit around together..."-- it finishes with the "intro part 1 riff"
eb -------------------------------------------------------------------------------------
Bb -------------------------------------------------------------------------------------
Gb -4-4-4-4-4-4-4-4-4-4-----------------------------------------------------------------
Db -4-4-4-4-4-4-4-4-4-4--7-7-7-7-7-7-7-7-7-7--5-5-5-5-5-5-5-5-5-5--2-2-2-2-2-2-2-2-2-2--
Ab -2-2-2-2-2-2-2-2-2-2--7-7-7-7-7-7-7-7-7-7--5-5-5-5-5-5-5-5-5-5--2-2-2-2-2-2-2-2-2-2--
Db ----------------------7-7-7-7-7-7-7-7-7-7--5-5-5-5-5-5-5-5-5-5--2-2-2-2-2-2-2-2-2-2--

End on a:
eb ---
Bb ---
Gb -5-
Db -5-
Ab -3-
Db ---

Chords: C#5 000xxx   D# 222xxx   F# 555xxx   G# 777xxx   A# x244xx   B5 x355xx
            
Submit corrections

comments powered by Disqus
↑ Back to top | Oleander Tabs for Jimmy Shaker Day. Lyrics for acoustic guitar and electric guitar. 1 Tablatures and chords are parodies/interpretations of the original songs. You may use it for private study, scholarship, research or language learning purposes only