>
 >
I Walk Alone 2

I Walk Alone 2 Guitar Tabs

Oleander - I Walk Alone 2 chords, tabs, tablatures, lyrics

Guitar lessons | Add/correct | Request | Top 50 tabs Artists:  A B C D E F G H I J K L M N O P Q R S T U V W X Y Z 0-9

I Walk Alone 2 Guitar Tabs – Oleander

CD, Sheet music, Poster

Do you like I Walk Alone 2? Share with your friends now
Bass TabsBass Tabs v2TabsTabs v2Tabs v3
-------------------------------------------------------------------------------
                             I walk alone - Oleander
-------------------------------------------------------------------------------

Tuning: standard

  intro:
   guitar ?
e|---------------------------------------------------------|
B|---------------------------------------------------------|
G|---8-88---8----8-88---8-------8---------6-66---6---------|
D|---6-66---6----6-66---6-----6---6---6---8-88---8---------| '4X
A|---------------------------------------------------------|
E|-9------9----8------8----77-------7---6------6-----------|

 verse:
   guitar 1
e|--------------------------------------------------------------------|
B|--------------------------------------------------------------------|
G|--------------------------------------------------------------------|
D|-6-6-6-6-6-6-6-6----------------------------------------------------|
A|-4-4-4-4-4-4-4-4-6-6-6-6-6-6-6-8-9-9-9-9-9-9-9-9-8-8-8-8-8-8-8-8----|
E|-----------------4-4-4-4-4-4-4-6-7-7-7-7-7-7-7-7-6-6-6-6-6-4-6-4----|
 
 pre-prechorus:
   guitar 2
e|-------------------------------------------------|
B|-------4-------4-------7---6----4----------------|
G|-----6-------6-------6---6---6----6--------------|
D|---6-------6-------6----------------6------------| '2X
A|-4-----------------------------------------------|
E|-------------------------------------------------|

 prechorus:
   guitar 1
e|-----|
B|-----|
G|-----|
D|--7--| 16X  'wait until end of guitar 2 then repeat
A|--7--|
E|--5--|

  prechorus:
   guitar 2
e|-------------------------------------------|
B|-------------------------------------------|
G|-6-6-6-6-6-8-8-8-8-8-9-9-9-9-9-8-8-8-8-8---|
D|-------------------------------------------|
A|-4-4-4-4-4-6-6-6-6-6-7-7-7-7-7-6-6-6-6-6---|
E|-------------------------------------------|

e|--------------------------------------------------------|
B|--------------------------------------------------------|
G|-4/6-6-6-6--6/8-8-8-8--8/10-10-10-10-10/11-11-11-11-----|
D|--------------------------------------------------------|
A|-2/4-4-4-4--4/6-6-6-6--6/8--8--8--8--8-/9--9--9--9------|
E|--------------------------------------------------------|

 Chorus:
  guitar 1
e|--------------|
B|--------------|
G|-6------------|
D|-6--4--8--6---| 'just repeat these chords. i'm not sure how many times 
A|-4--4--8--6---| 'you hit each one.
E|----2--6--4---|

 solo:
  guitar 2
e|--------------------------------------------------------------------|
B|--------------------------------------------------------------------|
G|--------------------------------------------------------------------|
D|-6-6h8-8-8p6-8p6-6-6-6-6-----------------6-6h8-8-8p6-8p6-6-6-8p6----|
A|-------------------------8-8-8/9-9-8-6-8----------------------------|
E|--------------------------------------------------------------------|


e|--------------------------------------------------------------------|
B|----------------9------------------------------------------9--------|
G|---6---6-6h8-b8---6-h8p6--6-6h8p6---6-6---6-6-6h8-6-b8-6--8---------|
D|-8---8------------------8---------8-----8---------------------------|
A|--------------------------------------------------------------------|
E|--------------------------------------------------------------------|


| /  slide up
| \  slide down
| h  hammer-on
| p  pull-off
| ~  vibrato
| +  harmonic
| x  Mute note
===============================================================================

 i think theres a few things wrong with the solo but that's the best i can do.
             Mike





Comments


Popular Oleander tabs & chords
Are You There? 2 Tabs
Bruise Tabs
Come To Stay Tabs
Down When I'm Loaded Tabs
Halo 1 Tabs
I Walk Alone Tabs
Runaway Train 1 Tabs
Tightrope Tabs
Where Were You Then? Tabs
Champion Ukulele


Song lyrics



↑ Back to top | Tablatures and chords are parodies/interpretations of the original songs. You may use it for private study, scholarship, research or language learning purposes only
© 2014 AZChords.com Contact us | Privacy policy | DMCA | Add/correct tabs | Request tabs | Top 50 tabs