>
 >
How Could I

How Could I Bass Tabs

Oleander - How Could I chords, tabs, tablatures, lyrics

Guitar lessons | Add/correct | Request | Top 50 tabs Artists:  A B C D E F G H I J K L M N O P Q R S T U V W X Y Z 0-9

How Could I Bass Tabs – Oleander

CD, Sheet music, Poster

Do you like How Could I? Share with your friends now
Bass TabsUkulele

Tuning:  Eb-A-D-G

--- Two measures guitar-only ---

G|----------------|----------------|----------------|----------------|
D|----------------|----------------|----------------|----------------|
A|----------------|----------------|----------------|----------------|
E|5------35x5---3-|1------0101---1\|5------35x5---3-|1---------------|

--- One-measure rest ---

G|----------------|----------------|----------------|----------------|
D|----------------|----------------|----------------|----------------|
A|----------------|----------------|----------------|----------------|
E|5-------------3-|1------0101---1/|5------35x5---3-|1------0101---1/|

G|----------------|----------------|----------------|----------------|
D|--------------4/|2---------------|--------------4/|2---------------|
A|----------------|----------------|----------------|----------------|
E|5------35x5-----|-------01x1---1/|5------3535-----|----------------|


G|----------------|----------------|----------------|----------------|
D|--------47------|----------------|----------------|----------------|
A|----------------|----------------|----------------|----------------|
E|5---------------|1-------------1/|5-----35x5----3-|1------01-------|

Hammer-on from 0 to 1 at the end.

G|----------------|----------------|----------------|----------------|
D|----------------|----------------|----------------|----------------|
A|----------------|----------------|----------------|----------------|
E|5-------------3-|1------0101---1/|5------5--------|1------0101---1/|

G|----------------|----------------|----------------|----------------|
D|--------------4\|2---------------|--------------4/|2---------------|
A|----------------|----------------|----------------|----------------|
E|5------35x5-----|-------01x1---1/|5------3535-----|-------01-------|

--- CHORUS BEGINS at 2:00 ---

G|----------------|----------------|----------------|----------------|
D|----------------|----------------|----------------|----------------|
A|2---2--2--------|----------------|2---2--2--------|----------------|
E|--------3x-3---0|1--------5555432|--------3x-3---0|1--------5555432|

G|----------------|----------------|----------------|----------------|
D|----------------|----------------|----------------|----------------|
A|2---2--2--------|----------------|2---2-21--------|----------------|
E|--------3x-3---0|1--------5555432|--------3-3----0|1---------------|

--- 1 measure rest (violin) ---

--- END OF CHORUS at 2:39 ---

G|----------------|----------------|----------------|----------------|
D|----------------|----------------|----------------|----------------|
A|----------------|----------------|----------------|----------------|
E|5---x--35x5---3-|1---x--0101---1/|5---x--35x5---3-|1---x--0101---1/|

G|----------------|----------------|----------------|----------------|
D|--------------4/|2------2200-----|----------------|----------------|
A|----------------|-----------331--|----------------|----------------|
E|5------35x5-----|---------------1|5---x--35x5---3-|1------01-------|

--- CHORUS at 3:14 ---

G|----------------|----------------|----------------|----------------|
D|----------------|----------------|----------------|----------------|
A|2---2--2--------|----------------|2---2--2--------|----------------|
E|--------3x-3---0|1--------5555432|--------3x-3---0|1--------5555432|

G|----------------|----------------|----------------|----------------|
D|----------------|----------------|----------------|----------------|
A|2---2--2--------|----------------|2---2-21--------|----------------|
E|--------3x-3---0|1--------5555432|--------3-3----0|1---------------|

--- CHORUS ENDS at 3:49 (guitar solo) ---

G|----------------|----------------|----------------|----------------|
D|---------47-----|----------------|----------------|2--20--0--------|
A|----------------|----------------|----------------|--------3--31---|
E|5-------5-------|1------0101---1/|5------35x5-----|---------------1|

G|----------------|----------------|----------------|----------------|
D|----------------|----------------|----------------|----------------|
A|----------------|----------------|----------------|----------------|
E|5------35x5-----|1------01x1-----|5------3535-----|1---------------|

--- CHORUS BEGINS at 4:23 ---

G|----------------|----------------|----------------|----------------|
D|----------------|----------------|----------------|----------------|
A|2---2--2--------|----------------|2---2--2--------|----------------|
E|--------3x-3---0|1--------5555432|--------3x-3---0|1--------5555432|

G|----------------|----------------|----------------|----------------|
D|------------20--|----------------|----------------|----------------|
A|2---2--2-------3|----------------|2---2-21--------|----------------|
E|--------3x-3----|1--------5555432|--------3-------|1---------------|

--- SONG ENDS at 4:53 ---

| /  slide up
| \  slide down
| h  hammer-on
| p  pull-off
| ~  vibrato
| +  harmonic
| x  Mute note
===============================================================================





Comments


Popular Oleander tabs & chords
I Walk Alone Bass Tabs
You'll Find Out Chords
Are You There? 2 Tabs
Benign 1 Tabs
Come To Stay Tabs
I Walk Alone Tabs
Oleander Why Im Here Tabs
Runaway Train Tabs
Runaway Train 1 Tabs
Boys Dont Cry Ukulele


Song lyrics



↑ Back to top | Tablatures and chords are parodies/interpretations of the original songs. You may use it for private study, scholarship, research or language learning purposes only
© 2014 AZChords.com Contact us | Privacy policy | DMCA | Add/correct tabs | Request tabs | Top 50 tabs