>
 >
Come To Stay

Come To Stay Guitar Tabs

Oleander - Come To Stay chords, tabs, tablatures, lyrics

Guitar lessons | Add/correct | Request | Top 50 tabs Artists:  A B C D E F G H I J K L M N O P Q R S T U V W X Y Z 0-9

Come To Stay Guitar Tabs – Oleander

CD, Sheet music, Poster

Do you like Come To Stay? Share with your friends now
Tabs
Drop d with a half step down tuning (Db,Ab,Db,Gb,Bb,eb)

b = bend
r = release
\ = slide down
/ = slide up
~ = vibrato

Intro:
First.
---------
---------
---------
---------
--3b\5r--
--3b\5r--

Then
Guitar 1
----------------------------------------------------------
----------------------------------------------------------
--7-7-7-7-7-9-9-9-9-9-9-12-12-12-12-12-14-14-14-12-12-12--
--x-x-x-x-x-x-x-x-x-x-x-x--x--x--x--x--x--x--x--x--x--x---
--5-5-5-5-5-7-7-7-7-7-7-10-10-10-10-10-12-12-12-10-10-10--
----------------------------------------------------------

Guitar 2
-----------------------------------------------------------
-----------------------------------------------------------
-----------------------------------------------------------
--5-5-5-5-5-5-5-5-5-5-5-5-5-5-5-5-5-5-5-5-5-5-5-5-5-5-5-5--
--5-5-5-5-5-5-5-5-5-5-5-5-5-5-5-5-5-5-5-5-5-5-5-5-5-5-5-5--
--5-5-5-5-5-5-5-5-5-5-5-5-5-5-5-5-5-5-5-5-5-5-5-5-5-5-5-5--


cont..
Guitar 1
-------------------------------------------------------
-------------------------------------------------------
--5-5-5-5-5-7-7-7-7-7-7-10-10-10-10-10-10-9-9-9-7-7-7--
--x-x-x-x-x-x-x-x-x-x-x-x--x--x--x--x--x--x-x-x-x-x-x--
--3-3-3-3-3-5-5-5-5-5-5-8--8--8--8--8--8--7-7-7-5-5-5--
-------------------------------------------------------

Guitar 2
-----------------------------------------------------------
-----------------------------------------------------------
-----------------------------------------------------------
--3-3-3-3-3-3-3-3-3-3-3-3-3-3-3-3-3-3-3-3-3-3-3-3-3-3-3-3--
--3-3-3-3-3-3-3-3-3-3-3-3-3-3-3-3-3-3-3-3-3-3-3-3-3-3-3-3--
--3-3-3-3-3-3-3-3-3-3-3-3-3-3-3-3-3-3-3-3-3-3-3-3-3-3-3-3--

Second time
Guitar 1
----------------------------------------------------------
----------------------------------------------------------
--7-7-7-7-7-9-9-9-9-9-9-12-12-12-12-12-14-14-14-16-16-16--
--x-x-x-x-x-x-x-x-x-x-x-x--x--x--x--x--x--x--x--x--x--x---
--5-5-5-5-5-7-7-7-7-7-7-10-10-10-10-10-12-12-12-14-14-14--
----------------------------------------------------------

Guitar 2
-----------------------------------------------------------
-----------------------------------------------------------
-----------------------------------------------------------
--5-5-5-5-5-5-5-5-5-5-5-5-5-5-5-5-5-5-5-5-5-5-5-5-5-5-5-5--
--5-5-5-5-5-5-5-5-5-5-5-5-5-5-5-5-5-5-5-5-5-5-5-5-5-5-5-5--
--5-5-5-5-5-5-5-5-5-5-5-5-5-5-5-5-5-5-5-5-5-5-5-5-5-5-5-5--

Guitar 1
----------------------------------------------------
----------------------------------------------------
--5-5-5-7-7-7-10-10-10-9-9-9--5-5-5-7-7-7\12-12-12--
--x-x-x-x-x-x-x--x--x--x-x-x--x-x-x-x-x-x\x--x--x---
--3-3-3-5-5-5-8--8--8--7-7-7--3-3-3-5-5-5\10-10-10--
----------------------------------------------------

Guitar 2
-----------------------------------------------------
-----------------------------------------------------
-----------------------------------------------------
--3-3-3-3-3-3-3-3-3-3-3-3-3-3-3-3-3-3-3-3-3-3-3-3-3--
--3-3-3-3-3-3-3-3-3-3-3-3-3-3-3-3-3-3-3-3-3-3-3-3-3--
--3-3-3-3-3-3-3-3-3-3-3-3-3-3-3-3-3-3-3-3-3-3-3-3-3--

that was just the intro...

Verse.

"if you're sad and mad, but glad to be away and free"
-----------------------------------------------------
-----------------------------------------------------
-----------------------------------------------------
-----------------------------------------------------
--5-5-5-5-5-5-5-5-5-5-5-5-5-5-5-5-5-5-5-5-5-5-5-5-5--
--5-5-5-5-5-5-5-5-5-5-5-5-5-5-5-5-5-5-5-5-5-5-5-5-5--
pm...

"from all the pain you've know, inside you feel you've grown"
-----------------------------------------------------
-----------------------------------------------------
-----------------------------------------------------
-----------------------------------------------------
--3-3-3-3-3-3-3-3-3-3-3-3-3-3-3-3-3-3-3-3-3-3-3-3-3--
--3-3-3-3-3-3-3-3-3-3-3-3-3-3-3-3-3-3-3-3-3-3-3-3-3--
pm...


Chorus
"Come to stay or stay away"
---------------------------------------------------
---------------------------------------------------
---------------------------------------------------
--------------3-3-3-------5-5-5-5-5-5-5-5-5-5-5-5--
--1-1-1-1-1-1-1-1-1-3-3-3-3-3-3-3-3-3-3-3-3-3-3-3--
--1-1-1-1-1-1-------3-3-3--------------------------


When guitar one is playing this part of the chorus, 
---------------------------
---------------------------
---------------------------
--5-5-5-5-5-5-5-5-5-5-5-5--
--3-3-3-3-3-3-3-3-3-3-3-3--
---------------------------

Guitar 2 come in with this fill
---------------------
---------------------
--7br-5--7-5--7br-5--
---------------------
---------------------
---------------------

Before and during the solo by guitar 1:
---------------------------
---------------------------
------------8-8-8-5-5-5-5--
--5-5-5-5-5-8-8-8-5-5-5-5--
--5-5-5-5-5-6-6-6-3-3-3-3--
--5-5-5-5-5----------------

Solo:
guitar 2
--------------------------------------------------------------1-3--1-3-3br-1-3--
----------------6-6-6---------------------------------1\3-1-3-------------------
--\7--10-10--7--7-7-7--5-5~--3-3-3-3-2-0-2-2\3-3----3---------------------------
--------------------------------------------------------------------------------
--------------------------------------------------------------------------------
--------------------------------------------------------------------------------

--1-3-3---1-3-5---3-5-6---5-6-8-6-8\11~--
-----------------------------------------
-----------------------------------------
-----------------------------------------
-----------------------------------------
-----------------------------------------

After the solo:
---------------------------------------------------------------
---------------------------------------------------------------
--8-8-8-8-8-8-8-8-8-8-8-8-8-8-8-5-5-5-5-5-5-5-5-5-5-5-5-5-5-5--
--8-8-8-8-8-8-8-8-8-8-8-8-8-8-8-5-5-5-5-5-5-5-5-5-5-5-5-5-5-5--
--6-6-6-6-6-6-6-6-6-6-6-6-6-6-6-3-3-3-3-3-3-3-3-3-3-3-3-3-3-3--
---------------------------------------------------------------

Then the first part of the intro
And then continues the verse but guitar 2 during this last verse is just hitting Gb bare.

Outro:
----------------------------
----------------------------
------------8-8-8-10-10-10--
--5-5-5-5-5-8-8-8-10-10-10--
--5-5-5-5-5-6-6-6-8--8--8---
--5-5-5-5-5-----------------

Then the first part of the intro again as an end.

Complete lyrics:
If you're sad and mad
but glad to be away and free
inside you feel you've grown
if you take your time
with every leap of faith you'll find
it's easier to grow

Come to stay or stay away
Come to stay or stay away

If you take too long
pretending that there's nothing wrong
don't waste my time 'cause i'll be fine
either way you'll see
that who we are what we'll be
in the end it's time to show
step up and let me know

Come to stay or stay away
Come to stay or stay away
i hope that you can see
nobody love you more than me
come to stay or stay away
away
away
away

while distances grows between us
every step you take away you take
a piece of me

If you say so long
pretending that there's something wrong
it's all for naught
'cause i forgot

if in time you find
the only leap of faith was mine
it is easier to go
or say we'll never know

Come to stay or stay away
Come to stay or stay away
i hope that you can see
nobody loves you more than me
Come to stay or stay away
away
away
away - yeah yeah
away - yeah yeah
away - yeah yeah
away - yeah yeah


And that's it.

Comments, suggestion, threats, warnings, invitations, all be free to give them to me.





Comments


Popular Oleander tabs & chords
Boys Don Cry Bass Tabs
Boys Don't Cry Chords
Champion Chords
Runaway Train Chords
Are You There? 1 Tabs
How Could I? Tabs
Where Were You Then? Tabs
Yours If You Like Tabs
How Could I Ukulele
Youll Find Out Ukulele


Song lyrics



↑ Back to top | Tablatures and chords are parodies/interpretations of the original songs. You may use it for private study, scholarship, research or language learning purposes only
© 2014 AZChords.com Contact us | Privacy policy | DMCA | Add/correct tabs | Request tabs | Top 50 tabs