» » »

Oleander, Boys Don't Cry Tabs (ver.1)

Artists:  A B C D E F G H I J K L M N O P Q R S T U V W X Y Z # 

Boys Don't Cry Tabs (ver.1)

Oleander Tabs
 Rating:
4/5 (4 votes)
Boys Don't Cry lessons Tabs too difficult? Try these video lessons and learn fast
1
                		Questions?, suggestions?, deathreats?

The INTRO is either played on both guitars or only one...
I didn't quite hear that...

INTRO

Gtr.1/Gtr.2
E-----------------------------------
B-----------------------------------
G-----------------------------------
D----6---8---10---11---11\10\8\6----
A----6---8---10---11---11\10\8\6----
E----4---6----8----9----9\-8\6\4----


In this part you can hit the strings the way you think it sounds good...
It doesn't really matter...


Gtr.1
E-----------------------------------
B-----------------------------------
G-----------------------------------
D----6---8---10---11----------------
A----6---8---10---11----------------
E----4---6----8----9----------------

Gtr.2
E----------------------------------------------- \
B--------------------------------8-9------------ |
G----5-5-6-8---5~~-6-8----8-8-10-----10-8-6-5---  \ play
D-----------------------------------------------  /  X2
A----------------------------------------------- |
E----------------------------------------------- /

...then...

E-------------------
B-------------------
G---5---1-----------
D-----------1---3---
A-------------------
E-------------------

...the p-muted part...


E-----------------------------------------
B-----------------------------------------
G-----------------------------------------
D----66666666-66666666-66666666-66666666--
A----66666666-66666666-66666666-66666666--
E----44444444-44444444-44444444-44444444--
  
  PM: ** ** *  ** ** *  ** ** *  ** ** *

E---------------------------------------------------------
B---------------------------------------------------------
G---------------------------------------------------------
D----66666666-88888888-1010101010101010-1111111111111111--
A----66666666-88888888-1010101010101010-1111111111111111--
E----44444444-66666666--8-8-8-8-8-8-8-8--9-9-9-9-9-9-9-9--

  PM: ** ** *  ** ** *    * *   * *   *    * *   * *   *

E---------------------------------------------------------
B---------------------------------------------------------
G---------------------------------------------------------
D----66666666-88888888-1010101010101010---11/\------------
A----66666666-88888888-1010101010101010---11/\------------
E----44444444-66666666--8-8-8-8-8-8-8-8----9/\------------

  PM: ** ** *  ** ** *    * *   * *   *


Gtr.1
E-----------------------------------
B-----------------------------------
G-----------------------------------
D----6---8---10---11----------------
A----6---8---10---11----------------
E----4---6----8----9----------------


when "I try to laugh about it..." etc.


E---------------------------------------
B---------------------------------------
G---------------------------------------
D---10---8---10---8---10---8---10---8---
A---10---8---10---8---10---8---10---8---
E----8---6----8---6----8---6----8---6---


Gtr.2
E----------------------------------------------- \        E-------------------
B--------------------------------8-9------------ |        B-------------------
G----5-5-6-8---5~~-6-8----8-8-10-----10-8-6-5---  \ play  G---5---1-----------
D-----------------------------------------------  /  X2   D-----------1---3---
A----------------------------------------------- |        A-------------------
E----------------------------------------------- /        E-------------------


E-------------------------------------------
B-------------------------------------------
G---5---1-------------------5^^-1-----------
D-----------1---3---3-1-------------1---3---
A-----------------------4-------------------
E-------------------------------------------


OUTRO

E------------------------
B------------------------
G----13---8---5--10------
D----13---8---5--10------
A----11---6---3---8------
E------------------------

I'm not sure about the end........F@#K.......I'm not sure about the whole song either,
but HEY!, it sounds pretty good to me:)
            
Submit corrections

comments powered by Disqus
↑ Back to top | Oleander Tabs for Boys Don't Cry. Lyrics for acoustic guitar and electric guitar. 1 Tablatures and chords are parodies/interpretations of the original songs. You may use it for private study, scholarship, research or language learning purposes only