» » »

Oleander, Benign Tabs (ver.1)

Artists:  A B C D E F G H I J K L M N O P Q R S T U V W X Y Z # 

Benign Tabs (ver.1)

Oleander Tabs
 Rating:
4/5 (4 votes)
Benign lessons Tabs too difficult? Try these video lessons and learn fast
                Benign- Oleander
Tuning: Down a half step (Eb, Ab, Db, Gb, Bb, eb)

h=hammer on   p=pull off   x=scratch   ^=bend   ~=hold note   V=vibrato   /=slide

This would be my 8th Oleander song I've tabbed. Another one, also, that could 
be played in standard, but I chose down a half step, just cause it's how Oleander 
probably plays it. This is their second single off Unwind, my ALL-TIME FAVE CD!
Go out and buy it, everyone! Oh by the way... this tab should be pretty CORRECT,
although there's lead in the chorus that I couldn't get. I know it's the intro

Intro/Verse: you can figure out the EXACT number of strums
eb -------5-5-5-5-5-x--5-5-5-5-5-x--5-5-5-5-5-x--5-5-5-5-5--
Bb -------7-7-7-7-7-x--7-7-7-7-7-x--7-7-7-7-7-x--7-7-7-7-7--
Gb -------7-7-7-7-7----7-7-7-7-7----7-7-7-7-7----7-7-7-7-7--
Db -------7-7-7-7-7----7-7-7-7-7----7-7-7-7-7----7-7-7-7-7--
Ab -0/5-5---------------------------------------------------
Eb ---------------------------------------------------------

eb -----5-5-5-5-5--x--5-5-5-5-5-x-------3-3-3-3-3-x--3-3-3-3-3--
Bb -----7-7-7-7-7--x--7-7-7-7-7-x-------3-3-3-3-3-x--3-3-3-3-3--
Gb -----7-7-7-7-7-----7-7-7-7-7---------4-4-4-4-4----4-4-4-4-4--
Db -----5-5-5-5-5-----5-5-5-5-5---------5-5-5-5-5----5-5-5-5-5--
Ab -5-5-5-5-5-5-5-----5-5-5-5-5---------5-5-5-5-5----5-5-5-5-5--
Eb --------------------------------3-3--3-3-3-3-3----3-3-3-3-3--

Cool, funky little solo:
eb ----------------------------------------------------------------
Bb -7h10p7-------7h10p7----------------------------^---------------
Gb --------7------------7---7~---9h11p9~--7----7h9-9-9--7h9p7------
Db ----------9~-----------9------------------9-----------------9~--
Ab ----------------------------------------------------------------
Eb ----------------------------------------------------------------

Fill inside the second verse:
eb -----------------------V----
Bb -----------------------12~--
Gb -9h7---7--------------------
Db -----9---7-7-7-9~-----------
Ab ----------------------------
Eb ----------------------------

Pre-chorus: kick in some distortion
eb ----------------------------------------------------------------
Bb ----------------------------------------------------------------
Gb ----------------------------------------------------------------
Db -2-2--2---4-4--4---5-5-5--5-5-5-5-5---2-2--2---4-4--4---5-5--5--
Ab -2-2--2---4-4--4---5-5-5--5-5-5-5-5---2-2--2---4-4--4---5-5--5--
Eb -0-0--0---2-2--2---3-3-3--3-3-3-3-3---0-0--0---2-2--2---3-3--3--

Chorus:
eb ------------------------------------------------------------------------
Bb ------------------------------------------------------------------------
Gb -7-7-7-7-7-7-7-7------------------------------------7-------------------
Db -7-7-7-7-7-7-7-7--5-5-5-5-5-5-5-5--9-9-9-9-9-9-9-9--7--5-5-5-5-5-5-5-5--
Ab -5-5-5-5-5-5-5-5--5-5-5-5-5-5-5-5--9-9-9-9-9-9-9-9--5--5-5-5-5-5-5-5-5--
Eb ------------------3-3-3-3-3-3-3-3--7-7-7-7-7-7-7-7-----3-3-3-3-3-3-3-3--

Longer Solo:
eb ---------------------------------------------------------------------------
Bb -7h10p7-------7h10p7------------------------------------------------10/7~--
Gb --------7------------7---7~--9h11p9~---7h9p7-6-7--9h7----------------------
Db ----------9~-----------9-------------------------------7h9--11--12---------
Ab ---------------------------------------------------------------------------
Eb ---------------------------------------------------------------------------

(continued) a really dirty tone is used on those bends at the end.
eb -------------7---9---10---12---14~--
Bb -7h8p7-------^---^---^----^----^----
Gb -------9-7--------------------------
Db ------------------------------------
Ab ------------------------------------
Eb ------------------------------------

Chords: D#5: 022xxx   F5: 244xxx   F#5: 355xxx   A#5: 799xxx   C#5: x577xxx
            
Submit corrections

comments powered by Disqus
↑ Back to top | Oleander Tabs for Benign. Lyrics for acoustic guitar and electric guitar. Tablatures and chords are parodies/interpretations of the original songs. You may use it for private study, scholarship, research or language learning purposes only