>
 >
Are You There? 2

Are You There? 2 Guitar Tabs

Oleander - Are You There? 2 chords, tabs, tablatures, lyrics

Guitar lessons | Add/correct | Request | Top 50 tabs Artists:  A B C D E F G H I J K L M N O P Q R S T U V W X Y Z 0-9

Are You There? 2 Guitar Tabs – Oleander

CD, Sheet music, Poster

Do you like Are You There? 2? Share with your friends now
Bass TabsTabsTabs v2Tabs v3
Band-Oleander
Song-Are You There?
Album-Unwind
*DROP D TUNING  a Step Down*
Intro                                    ^
Eb-----------------------------------------|
Bb-33333333333333333333333333333333333333--|Keep the notes steady 
Gb-77777777777777777777777777777777777777b-|then bend the 7 up after
Db-----------------------------------------|the bass and guitar finish
Ab-----------------------------------------|the 2nd repeat of the 
Db-----------------------------------------| intro verse riff 1
Intro/Verse Riff 1
Eb---------------------|
Bb---------------------| 
Gb---------------------|
Db---------------------| play 2x’s
Ab-0-0-7-0-8--0-0-7-0-8|let the last 8 ring out
Db-0-0-7-0-8--0-0-7-0-8|
Verse Riff 1
Eb----------------------------|
Bb----------------------------|
Gb----------------------------|
Db-0-0-0-7-0-0-0-8-0-0-0-7-0-8|4x’s
Ab-0-0-0-7-0-0-0-8-0-0-0-7-0-8|
Db-0-0-0-7-0-0-0-8-0-0-0-7-0-8|
Verse Riff 2
Eb----------------------------|
Bb----------------------------|
Gb----------------------------|
Db----------------------------|8x’s
Ab----------------------------|
Db-0-0-0-7-0-0-0-8-0-0-0-7-0-8|
Verse Riff 1
Eb----------------------------|
Bb----------------------------|
Gb----------------------------|
Db-0-0-0-7-0-0-0-8-0-0-0-7-0-8|4x’s
Ab-0-0-0-7-0-0-0-8-0-0-0-7-0-8|
Db-0-0-0-7-0-0-0-8-0-0-0-7-0-8|
Verse Riff 2
Eb|----------------------------|Played throughout the 8x’s
Bb|----------------------------|of the verse.
Gb|-7-----7-----7-----7-----7--|*let notes ring out*
Db|----------------------------|uses effects but can be done 
Ab|----------------------------|by continuously picking the note 
Db|----------------------------|in a triplet type pattern 
  |--*played-at-the-same-time*-|
Eb|----------------------------|
Bb|----------------------------|
Gb|----------------------------|
Db|----------------------------|8x’s
Ab|----------------------------|
Db|-0-0-0-7-0-0-0-8-0-0-0-7-0-8|

Chorus Riff 1
Eb--------------------------------|
Bb--------------------------------|
Gb-------5-5-5-5-------7-7-7-7----|
Db-3-3-xx5-5-5-5-5-5-xx7-7-7-7----|1x’s
Ab-3-3-xx3-3-3-3-5-5-xx5-5-5-5----|
Db-3-3-xx--------5-5-xx-----------|
Chorus Riff 2
Eb--------------------------------|
Bb--------------------------------|
Gb-------5-5-5-5-------7----------|
Db-3-3-xx5-5-5-5-5-5-xx7-5-7-5-7-5|1x’s
Ab-3-3-xx3-3-3-3-5-5-xx5----------|
Db-3-3-xx--------5-5-xx-----------|
Chorus Riff 1
Eb--------------------------------|
Bb--------------------------------|
Gb-------5-5-5-5-------7-7-7-7----|
Db-3-3-xx5-5-5-5-5-5-xx7-7-7-7----|1x’s
Ab-3-3-xx3-3-3-3-5-5-xx5-5-5-5----|
Db-3-3-xx--------5-5-xx-----------|
Chorus Riff 1
Eb---------------|
Bb---------------|
Gb-------5-5-5-5-|
Db-3-3-xx5-5-5-5-|
Ab-3-3-xx3-3-3-3-|
Db-3-3-xx--------|

    Interlude Riff Bridge: 

Eb|----------------------------|
Bb|----------------------------|
Gb|----------------------------|
Db|-3----0----10----8----7-----|
Ab|-3----0----10----8----7-----|
Db|-3----0----10----8----7-----|
  |--*played-at-the-same-time*-|
Eb|----------------------------|Verse Riff 1
Bb|----------------------------|
Gb|----------------------------|
Db|-0-0-0-7-0-0-0-8-0-0-0-7-0-8|4x’s
Ab|-0-0-0-7-0-0-0-8-0-0-0-7-0-8|
Db|-0-0-0-7-0-0-0-8-0-0-0-7-0-8|
  |----------------------------|
Eb|----------------------------|
Bb|----------------------------|
Gb|--/10---/9----/12----/14----|*Each note is a steady note*
Db|----------------------------|
Ab|--/8----/7----/10----/12----|
Db|----------------------------|

(Pause)
Verse Riff 2
Eb|----------------------------|
Bb|----------------------------|
Gb|----------------------------|
Db|----------------------------|8x’s
Ab|----------------------------|
Db|-0-0-0-7-0-0-0-8-0-0-0-7-0-8|

Chorus Riff 1
Eb--------------------------------|
Bb--------------------------------|
Gb-------5-5-5-5-------7-7-7-7----|
Db-3-3-xx5-5-5-5-5-5-xx7-7-7-7----|1x’s
Ab-3-3-xx3-3-3-3-5-5-xx5-5-5-5----|
Db-3-3-xx--------5-5-xx-----------|
Chorus Riff 2
Eb--------------------------------|
Bb--------------------------------|
Gb-------5-5-5-5-------7----------|
Db-3-3-xx5-5-5-5-5-5-xx7-5-7-5-7-5|1x’s
Ab-3-3-xx3-3-3-3-5-5-xx5----------|
Db-3-3-xx--------5-5-xx-----------|
Chorus Riff 1
Eb--------------------------------|
Bb--------------------------------|
Gb-------5-5-5-5-------7-7-7-7----|
Db-3-3-xx5-5-5-5-5-5-xx7-7-7-7----|1x’s
Ab-3-3-xx3-3-3-3-5-5-xx5-5-5-5----|
Db-3-3-xx--------5-5-xx-----------|
Chorus Riff 1
Eb---------------|
Bb---------------|
Gb-------5-5-5-5-|
Db-3-3-xx5-5-5-5-|
Ab-3-3-xx3-3-3-3-|
Db-3-3-xx--------|

   Interlude Riff1/Bridge

Eb|----------------------------|
Bb|----------------------------|
Gb|----------------------------|
Db|-3----0----10----8----7-----|2x’s
Ab|-3----0----10----8----7-----|
Db|-3----0----10----8----7-----|
(Solo1)
Hold each bend and then release, listen to the song to get it right.       
This is the area of where its played its not perfect but its close.
      ^                             ^   ^       ^     ^
Eb|-------------------------------------------------------------------|
Bb|-------------------------------------------------------------------|
Gb|-------------------------------------------------------------------|
Db|-15b-15-------------------------17b-17b/15—17b----17b--------------|
Ab|---------17-17/20---15-15/20-17----------------19-----17-----------|
Db|-------------------------------------------------------------------|
or play this for the same thing
Eb|------------------------------------------------------|
Bb|------------------------------------------------------|
Gb|--10--/10--\9--/9--\7--/10--10--\9--/9--\7---/10--\7--|1st part
Db|------------------------------------------------------|
Ab|--8---/8---\7--/7--\5--/8---8---\7--/7--\5---/8---\5--|
Db|------------------------------------------------------|
                                                        
Eb|------------------------------------------------------|
Bb|------------------------------------------------------|
Gb|-14--/14--/12-\12--/10--14--/14--/12-\12--/10--14/-12-|2nd part
Db|------------------------------------------------------|
Ab|-12--/12--/10-\10--/8---12--/12--/10-\10--/8---12/-10-|
Db|------------------------------------------------------|

Interlude Riff 2/Bridge 
Eb|---------------------------|
Bb|---------------------------|
Gb|---------------------------|
Db|-8-7-8-7-8---8-7-8-7-8-----|1x’s
Ab|-8-7-8-7-8---8-7-8-7-8-----|
Db|-8-7-8-7-8---8-7-8-7-8-----|
Verse Riff 1   
Continue solo
Eb|------------------------------------------------------------------------------|
Bb|------------------------------------------------------------------------------|
Gb|------------------------------------------------------------------------------|
Db|------------------------------------------------------------------------------|
Ab|-12-12/13/12--10-10h12----12-12/13/12--10-10h12---8h10p8--10-8/12-10-10h12p10-|
Db|-----------------------12-----------------------10----------------------------|
 
Eb|------------------------------------------------------------------------------|
Bb|--------------------10-10-10b11r10--------------10b11r10----------------------|
Gb|----------10h12--------------------12-12p10h12------------12-12p10h12---------|
Db|----10h12--------12----------------------------------------------------10-----|
Ab|-12---------------------------------------------------------------------------|
Db|------------------------------------------------------------------------------|
 
Eb|----------------------------------------------------13h15b-13-----------------|
Bb|-----------------------10--------10----------13h15----------------------------|
Gb|-------10h12p10-12p10-----12-12------12h14------------------------------------|
Db|-10h12------------------------------------------------------------------------|
Ab|------------------------------------------------------------------------------|
Db|------------------------------------------------------------------------------|
  |---played--together-------------|
Eb|--------------------------------|
Bb|--------------------------------|
Gb|-------5-5-5-5-------7-7-7-7----|
Db|-3-3-xx5-5-5-5-5-5-xx7-7-7-7----|4x’s
Ab|-3-3-xx3-3-3-3-5-5-xx5-5-5-5----|
Db|-3-3-xx--------5-5-xx-----------|
Verse Riff 2  
Eb--------------------------------|
Bb--------------------------------|
Gb-------5-5-5-5-------7----------|
Db-3-3-xx5-5-5-5-5-5-xx7-5-7-5-7-5|1x’s
Ab-3-3-xx3-3-3-3-5-5-xx5----------|
Db-3-3-xx--------5-5-xx-----------|
Verse Riff 1   
Eb--------------------------------|
Bb--------------------------------|
Gb-------5-5-5-5-------7-7-7-7----|
Db-3-3-xx5-5-5-5-5-5-xx7-7-7-7----|1x’s
Ab-3-3-xx3-3-3-3-5-5-xx5-5-5-5----|
Db-3-3-xx--------5-5-xx-----------|

Song Order
Guitar Intro with steady notes
Intro/Verse Riff 1 |  2x’s
 Verse Riff 1   |  4x’s
 Verse Riff 2   |  8x’s
 Verse Riff 1   |  4x’s 
 Verse Riff 2   |  8x’s with steady note on 7th fret

Chorus Riff 1   | 1x’s
Chorus Riff 2   | 1x’s 
Chorus Riff 1   | 1x’s
Chorus Riff 1   |  x’s
Interlude Riff1/Bridge 
2nd half 1/2 x’s with Verse Riff 1 and Steady notes

(Pause)

Verse Riff 2     |  8x’s

Chorus Riff 1    | 1x’s
Chorus Riff 2    | 1x’s 
Chorus Riff 1    | 1x’s
Chorus Riff 1    |  x’s
Interlude Riff1/Bridge | 2x’s with 1st solo
Interlude Riff2/Bridge 
Verse Riff 1     |  4x’s and continue solo
Verse Riff 2     |  1x’s 
Verse Riff 1     |  1x’s
(End)

Lyrics 				Oleander
			   Are You There?
I never fear to far away 
There’s nothing Left For me (Yeah)
And when I fear to close to Breath
Like A Baby Cutting Teeth
And You are far away

 (Ahhh a ) Twice

Cause when its more than I can take
I pushed and Pulled to Break
A sucker for a saint 
In Your Eyes
Critosism comes and waits 
Numbering your days
That only you can Save me

Is anybody even there?
Doesn’t just pretend to care
This time I need to know 
Are You There?
Does  anybody think they care?
Begin to even understand 
This time I need to know
Are You There?

(Pause)
Hang on  Hang on
I know  I love
Its the lie that we believe 
A truth that we conceive
That Lies inside of me (yeah)
When I leave it all behind
Something hypnotized 
The moment that its mine

Is anybody even there?
Doesn’t just pretend to care
This time I need to know 
Are You There?
Does  anybody think they care?
Begin to even understand 
This time I need to know 
Are You                             
(Ahhhhhhhh aaaaaaa hhhhhh aaaaa)

Is anybody even there?
Doesn’t just pretend to care
This time I need to know 
Are You There?
Does  anybody think they care?
Begin to even understand 
This time I need to know 
Are You There?





Comments


Popular Oleander tabs & chords
Are You There? Bass Tabs
Boys Don Cry Bass Tabs
Come To Stay Tabs
I Walk Alone 2 Tabs
Never Again Tabs
Where Were You Then? Tabs
Why I'm Here 2 Tabs
Why Im Here (Solo Ver 2) Tabs
Why Im Here 2 Tabs
Runaway Train Ukulele


Song lyrics



↑ Back to top | Tablatures and chords are parodies/interpretations of the original songs. You may use it for private study, scholarship, research or language learning purposes only
© 2014 AZChords.com Contact us | Privacy policy | DMCA | Add/correct tabs | Request tabs | Top 50 tabs