>
 >
Are You There?

Are You There? Bass Tabs

Oleander - Are You There? chords, tabs, tablatures, lyrics

Guitar lessons | Add/correct | Request | Top 50 tabs Artists:  A B C D E F G H I J K L M N O P Q R S T U V W X Y Z 0-9

Are You There? Bass Tabs – Oleander

CD, Sheet music, Poster

Do you like Are You There?? Share with your friends now
Bass TabsTabsTabs v2Tabs v3
On: 03-02-01

 * Tuning For 4 Strings: C-G-C-F
 * Yes, I know the song is in C#. You'll have more
   control and less mud fretting C# than an open C#.

      / = slide up
      \ = slide down
      ~ = Let note ring

Intro
F:-------------------------------------------------|
C:-------------------------------------------------|
G:------2------------2~-----------2------------2~--|
C:--1-1---------1-1----------1-1----------1-1------|

Part A    4 times
F:--------------------------------|
C:--------------------------------|
G:----------2-----2-----2---2--2--|
C:--1-1-1-1---1-1---1-1---1-------|

Part B    3 times
F:------------------|
C:------------------|
G:--6-6-------6-2~--|
C:------------------|

Part C
F:---------------------------|
C:---------------------------|
G:--6-6---------6-2~--\4/2~--|
C:---------------------------|


Part B     3 times


Part D
F:----------------------------|
C:----------------------------|
G:--6-6---------6-2~--\4/2\4--|
C:----------------------------|


Part A    4 times
Part B  


Part E
F:------------------------|
C:------------------------|
G:--6-6---------6-2~---4--|
C:------------------------|


Part B
Part D
Part B   3 times
Part D


Part E
F:--------------------------------------------------------------------|
C:--1\---4~---4------\6~--6-----3-4~---4-----4\---\6~--6-6-6-6-6-6-6--|
G:-------------4~----------6~------------4~---------------------------|
C:--------------------------------------------------------------------|

Part F
F:-------------------------------------------|
C:--1\---4~---4------\6~--6-----3-4~---4-----|
G:-------------4~----------6~------------4~--|
C:-------------------------------------------|


Part A   4 times (Cut it short on the 4th one.)
Part B   3 times
Part D
Part B   3 times
Part D


Part G   3 times
F:----------------------------|
C:----------------------------|
G:--2-6-6---------6-2~---4-2--|
C:----------------------------|


Part D
Part E
Part F


Part G
F:--------------------------------|
C:--4--4-4--4--4-4--4--4-4--4--4--|
G:--------------------------------|
C:--------------------------------|

Part H
F:--------------------------------|
C:--------------------------------|
G:--6--6-6--6--6-6--6--6-6--6--6--|
C:--------------------------------|

Part I
F:--------------------------------|
C:--------------------------------|
G:--4--4-4--4--4-4--4--4-4--4--4--|
C:--------------------------------|

Part J
F:--\4-4-4-4-/3-3-3-3-/1-1-1-1-----------|
C:-----------------------------\4-4-4-4--|
G:---------------------------------------|
C:---------------------------------------|


Part G
Part H


Part K
F:-------------------------|
C:--------------------\6~--|
G:--4--4-4--4--4-4--4------|
C:-------------------------|

Part L
F:-----------------------------------|
C:-----------------------------------|
G:--2--1--2--1--2-----2--1--2--1--2--|
C:-----------------------------------|

Part M   2 times
F:--------------------------------------------------------------------------|
C:--1\---4-4---4------\6-6--6-----3-4-4---4------4\---\6~--6-6--6-6--6-6-6--|
G:---------------4-4----------6-6------------4-4----------------------------|
C:--------------------------------------------------------------------------|


Part E


Part N
F:---------------------------------------------------|
C:--1\---4~---4------\6~--6-----3-4~---4-----4-------|
G:-------------4~----------6~------------4~----------|
C:-----------------------------------------------1~--|

=========================================
I may have updated this tab. The latest
version will be uploaded to my site.
=========================================
  ____    _____
 (    `--'  .-'`                T_T_T_T_
 |{| O  O  ||||||||||||||||||||[o o o o/
 (__,--.____',                  `--`--'





Comments


Popular Oleander tabs & chords
Boys Don't Cry Chords
Runaway Train Chords
You'll Find Out Chords
Hands Off The Wheel Tabs
I Walk Alone 1 Tabs
Oleander I Walk Alone Tabs
Oleander Why Im Here Tabs
Runaway Train 1 Tabs
Stupid 1 Tabs
Where Were You Then? Tabs


Song lyrics



↑ Back to top | Tablatures and chords are parodies/interpretations of the original songs. You may use it for private study, scholarship, research or language learning purposes only
© 2014 AZChords.com Contact us | Privacy policy | DMCA | Add/correct tabs | Request tabs | Top 50 tabs