>
 >
Unholy Vivid Innocence

Unholy Vivid Innocence Guitar Tabs

Old Mans Child - Unholy Vivid Innocence chords, tabs, tablatures, lyrics

Guitar lessons | Add/correct | Request | Top 50 tabs Artists:  A B C D E F G H I J K L M N O P Q R S T U V W X Y Z 0-9

Unholy Vivid Innocence Guitar Tabs – Old Mans Child

CD, Sheet music, Poster

Do you like Unholy Vivid Innocence? Share with your friends now
Tabs


Many riffs are played first with single chords and then with tremolo picking
but if You have listened to the song You won't have any problems.

Riff 1, the rhytm is a bitch to type but it's not so difficult to play,
e|-------3---------------3-------3---------3-3-----|
B|-------3---------------3-------3---------3-3-----|
G|-------3---3-------3---3-------3---3-----3-3-----|
D|-5---5-5---5-----5-5---5-----5-5---5-----5-5---3-|
A|-5---5-----5-----5-5---------5-----5-----------3-|
E|-3---3-----3-----3-3---------3-----3-----------1-|

e|-------2---------------2-------2-----------------|
B|-------2---------------2-------2-----------------|
G|-------2---2-------2---2-------2---2-------------|
D|-4---4-4---4-----4-4---4-----4-4---4-----4-3---4-|
A|-4---4-----4-----4-4---------4-----4-----4-3---4-|
E|-2---2-----2-----2-2---------2-----2-----2-1---2-|

Riff 2
e|-------------------------------------------------|
B|-------------------------------------------------|
G|-------------------------------------------------|
D|-5-5-5-5-5-5-5-5-5-5-5-5-7-7-7-7-7-7-7-7-7-7-7-7-|
A|-5-5-5-5-5-5-5-5-5-5-5-5-5-5-5-5-5-5-5-5-5-5-5-5-|
E|-3-3-3-3-3-3-3-3-3-3-3-3-5-5-5-5-5-5-5-5-5-5-5-5-|

Riff 3
e|-------------------------------------------------|
B|-------------------------------------------------|
G|-------------------------------------------------|
D|-5---5-5-5-5-5---5-5-5-5-5---5-5-5-5-5---5-5-5-5-|
A|-3---3-3-3-3-3---3-3-3-3-5---5-5-5-5-5---5-5-5-5-|
E|-3---3-3-3-3-3---3-3-3-3-3---3-3-3-3-3---3-3-3-3-|

e|-------------------------------------------------|
B|-------------------------------------------------|
G|-------------------------------------------------|
D|-5---5-5-5-5-5---5-5-5-5-5---5-5-5-5-5---5-5-5-5-|
A|-3---3-3-3-3-3---3-3-3-3-5---5-5-5-5-5---5-5-5-5-|
E|-3---3-3-3-3-3---3-3-3-3-3---3-3-3-3-3---3-3-3-3-|

e|-------------------------------------------------|
B|-------------------------------------------------|
G|-------------------------------------------------|
D|-5---5-5-5-5-5---5-5-5-5-5---5-5-5-5-5---5-5-5-5-|
A|-3---3-3-3-3-3---3-3-3-3-5---5-5-5-5-5---5-5-5-5-|
E|-3---3-3-3-3-3---3-3-3-3-3---3-3-3-3-3---3-3-3-3-|

e|-------------------------------------------------|
B|-------------------------------------------------|
G|-------------------------------------------------|
D|-7-----------7-----------7-----------7-----------|
A|-5---5-5-5-5-5---5-5-5-5-5---5-5-5-5-5---5-5-5-5-|
E|-5---5-5-5-5-5---5-5-5-5-5---5-5-5-5-5---5-5-5-5-|
pm     . . . .     . . . .     . . . .     . . . .

Riff 4
Guitar 1
e|-------------------------------------------------|
B|-------------------------------------------------|
G|-------------------------------------------------|
D|-5-----5-----5-----5-----5-----5-----4-----4-----|
A|---5-----5-----5-----5-----5-----5-----4-----4---|
E|-----3-----3-----3-----3-----3-----3-----2-----2-|

Guitar 2
e|-------------------------------------------------|
B|-------------------------------------------------|
G|-------------------------------------------------|
D|-5-5-5-5-5-5-5-5-5-5-5-5-5-5-5-5-5-5-4-4-4-4-4-4-|
A|-5-5-5-5-5-5-5-5-5-5-5-5-5-5-5-5-5-5-4-4-4-4-4-4-|
E|-3-3-3-3-3-3-3-3-3-3-3-3-3-3-3-3-3-3-2-2-2-2-2-2-|

Riff 5,
Guitar 1
e|-------------------------------------------------|
B|-------------------------------------------------|
G|-------------------------------------------------|
D|-5---5-5-5-5-5---5-5-5-5-5---5-5-5-5-5---5-5-5-5-|
A|-3---3-3-3-3-3---3-3-3-3-5---5-5-5-5-5---5-5-5-5-|
E|-3---3-3-3-3-3---3-3-3-3-3---3-3-3-3-3---3-3-3-3-|

Guitar 2
e|-------------------------------------15----------|
B|-16----16----20----16----15----15----------15----|
G|---1717--1717--1717--1717--1212--1212--1212--1212|
D|-------------------------------------------------|
A|-------------------------------------------------|
E|-------------------------------------------------|

Guitar 1
e|-------------------------------------------------|
B|-------------------------------------------------|
G|-------------------------------------------------|
D|-5---5-5-5-5-5---5-5-5-5-5---5-5-5-5-5---5-5-5-5-|
A|-3---3-3-3-3-3---3-3-3-3-5---5-5-5-5-5---5-5-5-5-|
E|-3---3-3-3-3-3---3-3-3-3-3---3-3-3-3-3---3-3-3-3-|

Guitar 2
e|-------------------------------------------------|
B|-16----16----20----16----15----15----------15----|
G|---1717--1717--1717--1717--1212--1212151212--1212|
D|-------------------------------------------------|
A|-------------------------------------------------|
E|-------------------------------------------------|

Guitar 1
e|-------------------------------------------------|
B|-------------------------------------------------|
G|-------------------------------------------------|
D|-5---5-5-5-5-5---5-5-5-5-5---5-5-5-5-5---5-5-5-5-|
A|-3---3-3-3-3-3---3-3-3-3-5---5-5-5-5-5---5-5-5-5-|
E|-3---3-3-3-3-3---3-3-3-3-3---3-3-3-3-3---3-3-3-3-|

Guitar 2
e|-------------------------------------15----------|
B|-16----16----20----16----15----15----------15----|
G|---1717--1717--1717--1717--1212--1212--1212--1212|
D|-------------------------------------------------|
A|-------------------------------------------------|
E|-------------------------------------------------|

Guitar 1
e|-------------------------------------------------|
B|-------------------------------------------------|
G|-------------------------------------------------|
D|-7-----------7-----------7-----------7-----------|
A|-5---5-5-5-5-5---5-5-5-5-5---5-5-5-5-5---5-5-5-5-|
E|-5---5-5-5-5-5---5-5-5-5-5---5-5-5-5-5---5-5-5-5-|
pm     . . . .     . . . .     . . . .     . . . .

Guitar 2
e|-------------------------------------------------|
B|-11--10--------------10--------------------------|
G|---------12--11--12------11~---------------------|
D|-------------------------------------------------|
A|-------------------------------------------------|
E|-------------------------------------------------|

Guitar 1
e|-------------------------------------------------|
B|-------------------------------------------------|
G|-------------------------------------------------|
D|-5---5-5-5-5-5---5-5-5-5-5---5-5-5-5-5---5-5-5-5-|
A|-3---3-3-3-3-3---3-3-3-3-5---5-5-5-5-5---5-5-5-5-|
E|-3---3-3-3-3-3---3-3-3-3-3---3-3-3-3-3---3-3-3-3-|

Guitar 2
e|-11--------------------1110--------------------10|
B|---13----------------13----1110--------------11--|
G|-----12------------12----------12~---------12----|
D|-------10~---------------------------------------|
A|-------------------------------------------------|
E|-------------------------------------------------|

Guitar 1
e|-------------------------------------------------|
B|-------------------------------------------------|
G|-------------------------------------------------|
D|-5---5-5-5-5-5---5-5-5-5-5---5-5-5-5-5---5-5-5-5-|
A|-3---3-3-3-3-3---3-3-3-3-5---5-5-5-5-5---5-5-5-5-|
E|-3---3-3-3-3-3---3-3-3-3-3---3-3-3-3-3---3-3-3-3-|

Guitar 2
e|-11--------------------1110----------------------|
B|---13----------------13------11--10--------------|
G|-----12------------12----------------12~---------|
D|-------10~---------------------------------------|
A|-------------------------------------------------|
E|-------------------------------------------------|

Guitar 1
e|-------------------------------------------------|
B|-------------------------------------------------|
G|-------------------------------------------------|
D|-5---5-5-5-5-5---5-5-5-5-5---5-5-5-5-5---5-5-5-5-|
A|-3---3-3-3-3-3---3-3-3-3-5---5-5-5-5-5---5-5-5-5-|
E|-3---3-3-3-3-3---3-3-3-3-3---3-3-3-3-3---3-3-3-3-|

Guitar 2
e|-------------------------------------------------|
B|-------------------------------------------------|
G|-------------------------------------------------|
D|-------------------------7-----------------------|
A|-6~--------5-3~----3h5h6-------------------------|
E|-----------------------------6---5---3~----------|

Guitar 1
e|-------------------------------------------------|
B|-------------------------------------------------|
G|-------------------------------------------------|
D|-7-----------7-----------7-----------7-----------|
A|-5---5-5-5-5-5---5-5-5-5-5---5-5-5-5-5---5-5-5-5-|
E|-5---5-5-5-5-5---5-5-5-5-5---5-5-5-5-5---5-5-5-5-|
pm     . . . .     . . . .     . . . .     . . . .

Guitar 2
e|-------------------------------------------------|
B|-------------------------------------------------|
G|-7~----------9~----------10~---------14~---------|
D|-------------------------------------------------|
A|-------------------------------------------------|
E|-------------------------------------------------|

Riff 6
Guitar 1
e|---------------------------------|
B|---------------------------------|
G|---------------------------------|
D|-5-5-5-5-5-5-5-5-5-5-5-5-5-5-5-5-|
A|-3-3-3-3-3-3-3-3-5-5-5-5-5-5-5-5-|
E|-3-3-3-3-3-3-3-3-3-3-3-3-3-3-3-3-|

Guitar 2
e|---------------------------------|
B|---------------------------------|
G|-8-5---5---5-8-5-7-----------7---|
D|-----5---5---------8-5---5-8---8-|
A|-----------------------5---------|
E|---------------------------------|

Guitar 1
e|---------------------------------|
B|---------------------------------|
G|---------------------------------|
D|-5-5-5-5-5-5-5-5-5-5-5-5-5-5-5-5-|
A|-3-3-3-3-3-3-3-3-5-5-5-5-5-5-5-5-|
E|-3-3-3-3-3-3-3-3-3-3-3-3-3-3-3-3-|

Guitar 2
e|---------------------------------|
B|-----------------8-----------8---|
G|-8-5---5---5-8-5---7-------7---7-|
D|-----5---5-----------8-5-8-------|
A|---------------------------------|
E|---------------------------------|

Riff 7
Guitar 1
e|-----------------------------------------------------------------|
B|-----------------------------------------------------------------|
G|-----------------------------------------------------------------|
D|-5-----------8-7-8-------108-7---5-------------------------------|
A|-3-----------6-5-6-------8-6-5---5-------------------------------|
E|-3-----------6-5-6-------8-6-5---3-------------------------------|

Guitar 2
e|-----------------------------------------------------------------|
B|-----------------------------------------------------------------|
G|-----------------------------------------------------------------|
D|-----------------------------------------------------------------|
A|-3~----------6-5-6~------8-6-5-----------------------------------|
E|---------------------------------3~------------------------------|

Guitar 1
e|-----------------------------------------------------------------|
B|-----------------------------------------------------------------|
G|-----------------------------------------------------------------|
D|-5-----------8-7-8-------108-10--12----------------------4-------|
A|-3-----------6-5-6-------8-6-8---10----------------------2-------|
E|-3-----------6-5-6-------8-6-8---10------------------------------|

Guitar 2
e|-----------------------------------------------------------------|
B|-----------------------------------------------------------------|
G|-----------------------------------------------------------------|
D|---------------------------------7~------------------------------|
A|-3~----------6-5-6~------8-6-8---------------------------2~------|
E|-----------------------------------------------------------------|





Comments


Popular Old Mans Child tabs & chords
Captives Of Humanity 1 Bass Tabs
Fall Of Man 1 Bass Tabs
Felonies Of The Christian Art Bass Tabs
Doommaker Tabs
In Black Endless Void Tabs
Into Silence Embrace Tabs
Old Mans Dream Tabs
Soul Possessed Tabs
Swallowed By A Burried One Tabs
The Last Chapter Tabs


Song lyrics



↑ Back to top | Tablatures and chords are parodies/interpretations of the original songs. You may use it for private study, scholarship, research or language learning purposes only
© 2014 AZChords.com Contact us | Privacy policy | DMCA | Add/correct tabs | Request tabs | Top 50 tabs