» » »

Old Mans Child, The Millenium King Tabs (ver.2)

Artists:  A B C D E F G H I J K L M N O P Q R S T U V W X Y Z # 

The Millenium King Tabs (ver.2)

Old Mans Child Tabs
 Rating:
4/5 (4 votes)
The Millenium King lessons Tabs too difficult? Try these video lessons and learn fast
1
                               The Millennium King by Old Man's Child 
                from the album The Pagan Prosperity

i have fixed it cause i looked at the main riff and it wasn't right but i'm not 
comeplety sure on the very end how it goes but i know 3/4rths of this tab is 100% 
Right.. Please Rate

Tablature Explanation :
h - hammer-on
p - pull-off
~ - vibrato
^ - bend
P.M. - palm mute
(A.H) - artificial harmonic
\ / - slide

Eb tuning

Intro
E|---------------------------------------------------------------------|
B|---------------------------------------------------------------------|
G|--------------------------------------------------------------9999---|
D|--------9999*------------------------------------------8888*---------|
A|--/7777-----------*-10101010*-----9999-----------7777----------------|
E|-------------------------------------------5555----------------------|
 
                         Fill A                  Fill B        End with
E|----------------------|-----------------------|--------------------|-----|
B|----------------------|-----------------------|--------------------|-----|
G|----------------------|-----------------------|---5-5-5-5-5-xx-4-4-|-----|
D|----------------------|-----------------------|---5-5-5-5-5-xx-4-4-|--3--|
A|---9999----7777--6666-|-7777---9999--1010-(12)|---3-3-3-3-3-xx-2-2-|--3--|
E5-7--------------------|-----------------------|--------------------|--1--|
P.M.                                                * * * * * ** * *
Repeat First two Bars Twice, then second time hit ghost note
Verse
E|------------------------------------------------------------------------|
B|------------------------------------------------------------------------|
G|-----------------------------------------------5-5-5-5-5-xx-4-4---------|
D|-------9-9---------------------------8-8--99---5-5-5-5-5-xx-4-4---------|
A|-7-7---------10-10--9-9----------7-7-----------3-3-3-3-3-xx-2-2---------|
E|----------------------------5-5-----------------------------------------|
   * *  * *     *  *  * *     * *  * * * *  **   * * * * * ** * *
P.M.
  Fill A                 Fill B        
E|----------------------|--------------------------|
B|----------------------|--------------------------|
G|----------------------|--5-5-5-5-5-xx-4-4--------|
D|------------8-8--9-9--|--5-5-5-5-5-xx-4-4--------|
A|-------7-7------------|--3-3-3-3-5-xx-2-2--------|
E|--5-5-----------------|--------------------------|
P.M.- -  - -  - -  - -    ----    ----


"Put your spell's on me..."
E|-------------------------------------------------------|
B|-------------------------------------------------------|
G|--5-(5)-4-(4)-------------------4-------------------4--|
D|--5-(5)-4-(4)-------------------4-------------------4--|
A|--3-(3)-2-(2)-------------------2-------------------2--|
E|--------------0-0-0-0-0-0-0-0-0---0-0-0-0-0-0-0-0-0----|


E|-------------------------------------------------------|
B|-------------------------------------------------------|
G|--5---4/8-(8)-------------------8-------------------8--|
D|--5---4/8-(8)-------------------8-------------------8--|
A|--3---2/6-(6)-------------------6-------------------6--|
E|--------------0-0-0-0-0-0-0-0-0---0-0-0-0-0-0-0-0-0----|
P.M.            * * * * * * * * *(*)* * * * * * * * *(*) 

E|-------------------------------------------------------|
B|-------------------------------------------------------|
G|--5-(5)-4-(4)-------------------4-------------------4--|
D|--5-(5)-4-(4)-------------------4-------------------4--|
A|--3-(3)-2-(2)-------------------2-------------------2--|
E|--------------0-0-0-0-0-0-0-0-0---0-0-0-0-0-0-0-0-0----|


E|-------------------------------------------------------|
B|-------------------------------------------------------|
G|--5---4/8-(8)-------------------8-------------------8--|
D|--5---4/8-(8)-------------------8-------------------8--|
A|--3---2/6-(6)-------------------6-------------------6--|
E|--------------0-0-0-0-0-0-0-0-0---0-0-0-0-0-0-0-0-0----|
P.M.            * * * * * * * * *(*)* * * * * * * * *(*) 
Silence

Next Riff... 
E|--------------------------------------------|                |-----------|
B|--------------------------------------------|                |-----------|
G|--------------------------------------------|                |-----------|
D|--2-----5-----4------1-2------5-----7-----4-| X2 second Time |---1--2----|
A|--2-----5-----4------1-2------5-----7-----4-|  Do the part   |---1--2----|
E|--0-0-0-3-0-0-2-0-0------0-0-3-0-0-5-0-0-2--|   at end      |-----------|
    * * * * * * * * *      * * * * * * * * *        
P.M.  
After the keyboard section :
Start with     Then play
E|------------|---------------------------------------------------|
B|------------|---------------------------------------------------|
G|------------|---------------------------------------------------|
D|------------|--------6----------------------6---------10--8--6--|
A|--10--8--6--|--8--4--4--6--8--4--6----8--4--4--6--3----8--6--4--|
E|---8--6--4--|--6--2-----4--6--2--4----6--2-----4--1-------------|

Rhytm under solo :
E|---------------------------------------------------|
B|---------------------------------------------------|
G|--------6----------------------6-------------------|
D|--8--4--4--6--8--4--6----8--4--4--6--3---10--8--6--|
A|--6--2-----4--6--2--4----6--2-----4--1----8--6--4--|
E|---------------------------------------------------|

Solo :
E|--18-t-16-p-11--18-t-16-p-11--18-t-16-p-11--18-t-16-p-11--|
B|----------------------------------------------------------|
G|----------------------------------------------------------|
D|----------------------------------------------------------|
A|----------------------------------------------------------|
E|----------------------------------------------------------|

E|--19-t-16-p-11--19-t-16-p-11--19-t-16-p-11--19-t-16-p-11--|
B|----------------------------------------------------------|
G|----------------------------------------------------------|
D|----------------------------------------------------------|
A|----------------------------------------------------------|
E|----------------------------------------------------------|

E|--18-t-14-p-9--18-t-14-p-9--18-t-14-p-9--18-t-14-p-9--|
B|------------------------------------------------------|
G|------------------------------------------------------|
D|------------------------------------------------------|
A|------------------------------------------------------|
E|------------------------------------------------------|

E|--16-t-14-p-9--16-t-14-p-9--16-t-14-p-9--16-t-14-p-9--|
B|------------------------------------------------------|
G|------------------------------------------------------|
D|------------------------------------------------------|
A|------------------------------------------------------|
E|------------------------------------------------------|

E|--14-t-11-p-6--14-t-11-p-6--14-t-11-p-6--14-t-11-p-6--|
B|------------------------------------------------------|
G|------------------------------------------------------|
D|------------------------------------------------------|
A|------------------------------------------------------|
E|------------------------------------------------------|

E|--13-t-11-p-7--13-t-11-p-7--13-t-11-p-7--13-t-11-p-7--------------------|
B|-----------------------------------------------------/12-11-9--9-11-12--|
G|------------------------------------------------------------------------|
D|------------------------------------------------------------------------|
A|------------------------------------------------------------------------|
E|------------------------------------------------------------------------|

E|-----------------------------------------------------------|
B|----------------------------------------11h12h14-11h12h14--|
G|--11h13h15-11h13h15--13h15h16-13h15h16---------------------|
D|-----------------------------------------------------------|
A|-----------------------------------------------------------|
E|-----------------------------------------------------------|

E|----------------------14-13h14p13p11----------------------|
B|--12h14h16-12h14h16------------------14-12-11-9-11h12-11--|
G|----------------------------------------------------------|
D|----------------------------------------------------------|
A|----------------------------------------------------------|
E|----------------------------------------------------------|
                           
                        ...and the fast lick...
E|-----------------------------------------------------|
B|--9--------------------------------------------------|
G|----11-10-8-10-8---------11p10p8---------------------|
D|-----------------11-10-----------11p9p8-9p8p6--------|
A|----------------------------------------------9p8p6--|
E|-----------------------------------------------------|

Now the palm-muted part...
E|-------------------------------------------------------|
B|-----------------------7-7-9p7-9/11-11-9h11p9----------|
G|------------------8p6-------------------------11-10-8--|
D|--------4-6p4-6-8--------------------------------------|
A|--6p4-6------------------------------------------------|
E|-------------------------------------------------------|
P.M.- - - - - - - - - -

E|---------------11-13-14-11-11h13--------|
B|--/11-12----11-------------------11~~~--|
G|---------13-----------------------------|
D|----------------------------------------|
A|----------------------------------------|
E|----------------------------------------|

...here is my favourite part...
E|--------------------------------------------------------------------|
B|--------------------------------------------------------------------|
G|--/8--8-10-11-10-8--------------------/11--11-13-15-13-11--10-8-----|
D|--------------------/9--9-11-13-11-9----------------------------11--|
A|--------------------------------------------------------------------|
E|--------------------------------------------------------------------|

                        ...and the last "fast" lick...
E|-----------6h8h9-8~~~---------------------------------------|
B|------------------------------------------------------------|
G|--/10~~~----------------------------------------------------|
D|-----------------------------------------------8h10h11-8\---|
A|--------------------------------6h8h9--8h9h11---------------|
E|-------------------------6h8h9------------------------------|

Last Riff:
E|-----------------------------------------------------------|
B|-----------------------------------------------------------|
G|-----------------------------------------------------------|
D|-----------------------------------------------------------|
A|------------------------------444844-444844----------------|
E|--666966-666966-222622-222622---------------111411-444844--|
P.M.------ ------ ------ ------ ------ ------ ------ ------

E|---------------------------------------------------------------|
B|---------------------------------------------------------------|
G|---------------------------------------------------------------|
D|---------------------------------------------------------------|
A|-------------------------------------------------666-888-999---|
E|--666966-666966-222622-222622-444844-444844-4444---------------|
P.M.------ ------ ------ ------ ------ ------ ---  --- --- ---

E|-----------------------------------------------------------|
B|-----------------------------------------------------------|
G|-----------------------------------------------------------|
D|-----------------------------------------------------------|
A|------------------------------444844-444844----------------|
E|--666966-666966-222622-222622---------------444844-444844--|
P.M.------ ------ ------ ------ ------ ------ ------ ------

E|----------------------------------|
B|----------------------------------|
G|----------------------------------|
D|----------------------------------|
A|---------------------888-666-444--|
E|--111411-111411-1111--------------|
P.M.------ ------ ---- --- --- ---
            
Submit corrections

comments powered by Disqus
↑ Back to top | Old Mans Child Tabs for The Millenium King. Lyrics for acoustic guitar and electric guitar. 1 Tablatures and chords are parodies/interpretations of the original songs. You may use it for private study, scholarship, research or language learning purposes only